Song name
# A B C D E F G H I J K L M N O P Q R S T U V W X Y Z

Christopher Jak - Squeeze tab

This is a tab for Squeeze by Christopher Jak. A rare but great artist to find. As always 
post corrections, comment and rate it. :)

(I apologize if this tab is a bit hard to follow)

Capo 3 fret

The rythm in this song is a bit tricky and tough to explain, so as reference if youre 
having trouble playing a long, follow him in this video:

http://www.youtube.com/watch?v=sJIEY8qpVrA

Intro/Verse (Each chord is half a measure)
  (E)  (F#m7) (B7)
e------2---2---7----|e
B------2---2---7----|B
G--1---2---2---8h9--|G
D--2---2---2---7----|D
A--2---4---4---9----|A
E------2---2---7----|E

Pre-Chorus (Again, each chord here is half a measure, except for the last two which are 
both full measures)
 (F#m7)(C#m7) (?)     (?) (B7)
e--2---4---4------e  e---------|e
B--2---5---5---3--B  B---------|B
G--2---4---4------G  G------2--|G
D--2---6---6---4--D  D--2---1--|D
A--4---4---4---5--A  A--3---2--|A
E--2-----------5--E  E--3------|E

Chorus (Each chord is half a measure)
  (E) (A5)(?) (B5)
e------------------|e
B------------------|B
G--1---2---2---4---|G
D--2---2---4---4---|D
A--2-------4---2---|A
E------------------|E

Intro/Verse (again)
Pre-Chorus  (again)
Chorus      (again)

Bridge (This is the tricky part where the video will help, but count every chord as half 
a measure for simplicity)
  (E5)(D5)(C5)(B5)(E5)(D5)(C5)(C5)
e----------------------------------|e
B----------------------------------|B
G--9---7---5---4---9---7---5---5---|G x3 (Stop on B5 the third time through)
D--9---7---5---4---9---7---5---5---|D
A--7---5---3---2---7---5---3---3---|A
E----------------------------------|E
   (?)(?)
e----------------|e
B--3-------------|B
G----------------|G x3 (On the forth time through hold on the first chord til the
D--4---2--D------|     chorus starts again)
A--5---3---------|A
E--5---3---------|E

Chorus (End on E)

Thanks for your time and have fun. :)

http://www.christopherjak.com/
Tap to rate this tab
 
# A B C D E F G H I J K L M N O P Q R S T U V W X Y Z