Guitaretab - guitar tabs
Song name
# A B C D E F G H I J K L M N O P Q R S T U V W X Y Z

Christopher James - Amie Girl tab

http://www.chrisjamesmedia.com/
http://www.myspace.com/christopherjames

Intro/Verse:

e|-----------10-----10--------------8-----8---------------6----6-----------|
B|-------8-----------8--------------------8----------6---------6-----------|
G|-------------------------------------------------------------------------|
D|---8---------------8------7-------------7-----5--------------5-----------|
A|-------------------------------------------------------------------------|
E|-------------------------------------------------------------------------|
[ Tab from: http://www.guitaretab.com/c/christopher-james/85390.html ]
e|----5----5------------3---3-------------1--1--------1---1--------1-------|
B|---3-----3--------1-------1----------------1------3-----3-----1----------|
G|-------------------------------------2-----2-----------------------------|
D|-3-------3----1-----------1------0---------0-----------------------------|
A|------------------------------------------------0-------0--0-----0-------|
E|-------------------------------------------------------------------------|



Chorus:

Bb     A/Bb     	F
  And now I have to go
Bb     A/Bb                F
    But Iíll be here when you wake up
Bb            A/Bb          F
   Close your eyes my Amie Girl
Bb     A/Bb                     F
  The angels have brought you home      
Bb     A/Bb     F
Tonight


Repeat Intro/Verse


2nd Chorus:

Bb     A/Bb          F
   But now I have to go
Bb       A/Bb               F
    But Iíll be here when you wake up
Bb            A/Bb          F
   Close your eyes my Amie Girl
     Bb          A/Bb                   F
The angels the angels have brought you home



Bb     A/Bb     F      x2




End on:

e|--6--|
B|--6--|
G|--7--|
D|--8--|
A|--6--|
E|-----|