Song name
# A B C D E F G H I J K L M N O P Q R S T U V W X Y Z

Christopher Owens - Lysandres Theme tab

     Am       Em      Am       Em
e|--------------------------------|  
B|----1------------------1--------|
G|-2----2-0----0---0--2----2--0---| 
D|-2---------2---2----2-------2---|
A|-0---------2---2----0-------2---|  
E|--------------------------------|

    Am        Em     Am
e|-----------------------------3h6---0----------|  
B|----1------------------1--------------3--1--0-|
G|-2----2-0----0---0--2----2--------------------| 
D|-2---------2---2----2-------------------------|
A|-0---------2---2----0-------------------------|  
E|----------------------------------------------|

Play through all that twice and end on A
Tap to rate this tab
 
# A B C D E F G H I J K L M N O P Q R S T U V W X Y Z