Song name
# A B C D E F G H I J K L M N O P Q R S T U V W X Y Z

Christopher Ray - Forgotten Long Ago tab

-------------------------------------------------------------------------------
                             Forgotten Long Ago-Christopher Ray
-------------------------------------------------------------------------------
Tabbed by:in4thekill (Nick Wu)
E-mail: wu.nick.nick@gmail.com

Tuning:Standard (EADGBe)
First time tabbing, hope I did well ^_^



She is the reason that I'm singing all these stupid, silly songs.
She brings the light when it gets dark. She makes it right when I am wrong. Constantly 
looking for a single way my love for you could show.
e|-----0-0-0-0-0-0-0-0-----0-0-0-0-----0-0-0-0-----|
B|-----1-1-1-1-1-1-1-1-----1-1-1-1-----1-1-1-1-----|
G|-----0-0-0-0-0-0-0-0-----0-0-0-0-----0-0-0-0-----|
D|-----3-3-3-3-3-3-3-3-----0-0-0-0-----2-2-2-2-----| X3
A|-----3-3-3-3-3-3-3-3-----2-2-2-2-----0-0-0-0-----|
E|-----X-X-X-X-X-X-X-X-----X-X-X-X-----X-X-X-X-----|

Thanks for these feelings that I thought that I had forgotten long ago...
Forgotten long ago...
e|-----0-0-0-0-0-0-0-0-----0-0-0-0-----0--0--0-----|
B|-----1-1-1-1-1-1-1-1-----1-1-1-1-----1--1--1-----|
G|-----0-0-0-0-0-0-0-0-----0-0-0-0-----0--0--0-----|
D|-----3-3-3-3-3-3-3-3-----0-0-0-0-----2--0--3-----| X2
A|-----3-3-3-3-3-3-3-3-----2-2-2-2-----0--2--3-----|
E|-----X-X-X-X-X-X-X-X-----X-X-X-X-----X--3--X-----|

Dont let the distance burden on your heart because if it should leave a scratch Id 
tear this world apart.
Ill stay persistent and when you hear my voice.
There will be zero second guesses of whether you made the correct choice.
e|-----0-0-0-0-0-0-0-0-----0-0-0-0-----0-0-0-0-----|
B|-----1-1-1-1-1-1-1-1-----1-1-1-1-----1-1-1-1-----|
G|-----0-0-0-0-0-0-0-0-----0-0-0-0-----0-0-0-0-----|
D|-----3-3-3-3-3-3-3-3-----0-0-0-0-----2-2-2-2-----| X4
A|-----3-3-3-3-3-3-3-3-----2-2-2-2-----0-0-0-0-----|
E|-----X-X-X-X-X-X-X-X-----X-X-X-X-----X-X-X-X-----|

I just wanted you to know...
e|-----0-0-0-0-0-0-0-0-----0-0-0-0-0-0-0-0---------|
B|-----1-1-1-1-1-1-1-1-----1-1-1-1-1-1-1-1---------|
G|-----0-0-0-0-0-0-0-0-----0-0-0-0-0-0-0-0---------|
D|-----0-0-0-0-0-0-0-0-----2-2-2-2-2-2-2-2---------|
A|-----2-2-2-2-2-2-2-2-----0-0-0-0-0-0-0-0---------|
E|-----X-X-X-X-X-X-X-X-----X-X-X-X-X-X-X-X---------|

That I'll be here, waiting by the coast...
e|-----0-0-0---0--|
B|-----1-1-1---1--|
G|-----0-0-0---0--|
D|-----0-0-3---3--|
A|-----2-2-3---3--|
E|-----X-3-X---X--|

She is the reason that I'm singing all these stupid, silly songs.
She brings the light when it gets dark.
She makes it right when I am wrong.
e|-----0-0-0-0-0-0-0-0-----0-0-0-0-----0-0-0-0-----|
B|-----1-1-1-1-1-1-1-1-----1-1-1-1-----1-1-1-1-----|
G|-----0-0-0-0-0-0-0-0-----0-0-0-0-----0-0-0-0-----|
D|-----3-3-3-3-3-3-3-3-----0-0-0-0-----2-2-2-2-----| X2
A|-----3-3-3-3-3-3-3-3-----2-2-2-2-----0-0-0-0-----|
E|-----X-X-X-X-X-X-X-X-----X-X-X-X-----X-X-X-X-----|

Constantly looking for a single way my love for you could show.
e|-----0-0-0-0-0-0-0-0-0-0-0-0-----0-0-0-----|
B|-----1-1-1-1-1-1-1-1-1-1-1-1-----1-1-1-----|
G|-----0-0-0-0-0-0-0-0-0-0-0-0-----0-0-0-----|
D|-----3-3-3-3-3-3-3-3-3-3-3-3-----0-0-3-----|
A|-----3-3-3-3-3-3-3-3-3-3-3-3-----2-2-3-----|
E|-----X-X-X-X-X-X-X-X-X-X-X-X-----X-3-X-----|

Thanks for these feelings that I thought that I had forgotten long
e|-----0-0-0-0-0-0-0-0-----0-0-0-0-----0--0--0-----|
B|-----1-1-1-1-1-1-1-1-----1-1-1-1-----1--1--1-----|
G|-----0-0-0-0-0-0-0-0-----0-0-0-0-----0--0--0-----|
D|-----3-3-3-3-3-3-3-3-----0-0-0-0-----2--0--3-----|
A|-----3-3-3-3-3-3-3-3-----2-2-2-2-----0--2--3-----|
E|-----X-X-X-X-X-X-X-X-----X-X-X-X-----X--3--X-----|

Ago is when you stole my breath.
Deleted the pain inside my chest.
Started with an internet crush.
I never thought Id be good enough. For you I swear to work things out.
I wont give up is what Im all about.
No longer do I have to dream. My search is done...
e|-----0-0-0-0-0-0-0-0-----0-0-0-0-0-0-0-0-----|
B|-----1-1-1-1-1-1-1-1-----1-1-1-1-1-1-1-1-----|
G|-----0-0-0-0-0-0-0-0-----0-0-0-0-0-0-0-0-----|
D|-----0-0-0-0-0-0-0-0-----2-2-2-2-2-2-2-2-----| x4
A|-----2-2-2-2-2-2-2-2-----0-0-0-0-0-0-0-0-----|
E|-----X-X-X-X-X-X-X-X-----X-X-X-X-X-X-X-X-----|

I've finally found my queen.
I've finally found my queen~ <3
e|-----0-0-0---0-0-0-0-0-0---0---0---0--|
B|-----1-1-1---1-1-1-1-1-1---1---1---1--|
G|-----0-0-0---0-0-0-0-0-0---0---0---0--|
D|-----0-0-3---3-3-3-3-3-3---3---3---2--|
A|-----2-2-3---3-3-3-3-3-3---3---3---2--|
E|-----X-3-X---X-X-X-X-X-X---X---X---X--|
Tap to rate this tab
# A B C D E F G H I J K L M N O P Q R S T U V W X Y Z