Christopher Smith - Paper Chains tab

Artist: Christopher Smith
Song: Paper Chains
Album: The Beckon Call
Tuning: Standard (Capo on 2nd)

http://thebeckoncall.com

Intro

e |-------------------------------------------------|
B |-------0------------1-------0----------1---1---0-|
G |-----0---0-------2--------0---0------------------|
D |-------------------------------------------------|
A |----2----------0--------2------------0-----------| 	
E |--3----------0--------3-----------0--------------|

Verse 1

e |-------------------------------------------------|
B |-------0------------1-------0----------1---1---0-|
G |-----0---0-------2--------0---0------------------|
D |-------------------------------------------------|
A |----2----------0--------2------------0-----------| 	
E |--3----------0--------3-----------0--------------|

God bless the birds in the morning 
God bless the birds in the night 
Chasing after mice in the garden 
Hiding their homes away from the light 
God won't you bless her precious eyes 

Chorus

e |--3----0---------------|
B |--0----1---------------|
G |--0----2---------------|
D |--0----2---------------|
A |--2----0---------------| 	
E |--3----0---------------|

He said he'd never go back again 
Is this not in his hands 
Is this what the saints call 
Providence 
Or divine intervention 

Interlude

e |-------------------------------------------------|
B |-------0------------1-------0----------1---1---0-|
G |-----0---0-------2--------0---0------------------|
D |-------------------------------------------------|
A |----2----------0--------2------------0-----------| 	
E |--3----------0--------3-----------0--------------|


Verse 2

e |--3--------0------3--------------------|
B |--0--0-----1---1--0---0-----1--1--1--0-|
G |--0----0---2------0-----0---2----------|
D |--0--------2------0---------2----------|
A |--2--------0------2--------------------| 	
E |--3--------0------3--------------------|

God bless the boats in the ocean 
God bless the boats in the bay 
Tied to the docks in the harbour 
Anchored to the rocks under the waves 
God won't you bless her precious face 

Chorus

Bridge Interlude 

e |--12---10---9----2----0---0---3-----|
B |----------------------1---0---2-----|
G |----------------------2---0---3-----|
D |----------------------2---2---------|
A |--------------------------3---------| 	
E |--------------------------0---------|

e |-5--7---5---3----------------0------2h3p---------------3---2-|
B |---5---5-----5--3---5--0---1---1---1-----1--2---0---1--------|
G |-------------------------------------------------------------|
D |-------------------------------------------------------------|
A |-------------------------------------------------------------| 
E |-------------------------------------------------------------|


e |--3--------0------3--------------------|
B |--0--0-----1---1--0---0-----1--1--1--0-|
G |--0----0---2------0-----0---2----------|
D |--0--------2------0---------2----------|
A |--2--------0------2--------------------| 	
E |--3--------0------3--------------------|

Verse 3

e |--3--------0------3--------------------|
B |--0--0-----1---1--0---0-----1--1--1--0-|
G |--0----0---2------0-----0---2----------|
D |--0--------2------0---------2----------|
A |--2--------0------2--------------------| 	
E |--3--------0------3--------------------|

God bless the books of coloured paper 
God bless the links of paper chain 
Tattered and torn under pressure 
Useless in binding the flames 
God won't you bless her precious name 

Chorus

Outro

e |--3--------0------3--------------------|
B |--0--0-----1---1--0---0-----1--1--1--0-|
G |--0----0---2------0-----0---2----------|
D |--0--------2------0---------2----------|
A |--2--------0------2--------------------| 	
E |--3--------0------3--------------------|

Tap to rate this tab
 
# A B C D E F G H I J K L M N O P Q R S T U V W X Y Z