Christopher Tin - Baba Yetu tab

Baba Yetu from Civ IV                               

Christopher Tin


      C                                                     
      E  E  E  S E  E  S E  E     E  E  E  S E  E  S E  E   
E||----------------------------|---------------------------|
B||------5--5---------------6--|--6--5--5----------5-5--8--|
G||*-----------7-7--5--5-5-----|--5--------5-5--7----------|
D||*--5----------5-------------|--5----------5-------------|
A||---3----------3-------------|--3----------3-------------|
E||----------------------------|---------------------------|


  Am                          Fadd9         G7             
  E  E  E  S E  E  S E  E     E     E  E  S E  E  S E  E   
--5------------------------|--3-----------0-1--0--0-0-----|
-----5--5---------------8--|--1-----1--1---------------3--|
-----------7-7--5--5-5-----|------------------------------|
---------------------------|------------------------------|
--7----------7-------------|----------------2-------------|
--5----------5-------------|--1-------------3-------------|


  C                                                     
  E  E  E  S E  E  S E  E     E  E  E  S E  E  S E  E   
---------------------------|---------------------------|
-----5--5---------------6--|--6--5--5----------5-5--8--|
-----------7-7--5--5-5-----|--5--------5-5--7----------|
--5----------5-------------|--5----------5-------------|
--3----------3-------------|--3----------3-------------|
---------------------------|---------------------------|


  Am                          Fadd9         G7             
  E  E  E  S E  E  S E  E     E     E  E  S E  E  S E  E   
--5------------------------|--3-----------0-1--0--0-0-----|
-----5--5---------------8--|--1-----1--1---------------3--|
-----------7-7--5--5-5-----|------------------------------|
---------------------------|------------------------------|
--7----------7-------------|----------------2-------------|
--5----------5-------------|--1-------------3-------------|


  Am                     F                      C                    
  Q.     Q.     E  E     Q.     Q.     E  E     Q.     Q.     E  E   
----------------------|----------------------|----------------------|
--1------1------1--0--|----------------0--1--|----------------------|
--2------2------------|--2------2------------|--0------0------------|
--2------2------------|--3------3------------|--2------2------3--2--|
--0------0------------|--3------3------------|--3------3------------|
----------------------|--1------1------------|----------------------|


  G                     Am                     F                    
  Q.     Q.     Q       Q.     Q.     E  E     Q.     Q.     E  E   
---------------------|----------------------|----------------------|
---------------------|--1------1------1--0--|----------------0--1--|
---------------------|--2------2------------|--2------2------------|
--0------0------L----|--2------2------------|--3------3------------|
--2------2------L----|--0------0------------|--3------3------------|
--3------3------L----|----------------------|--1------1------------|


  C                      G                       F                   
  Q.     Q.     E  E     Q.     E  E.  E.  E     Q.     Q.     Q     
----------------------|-----------------------|---------------------|
----------------------|-----------------------|--1------1------0----|
--0------0------------|-----------------------|--2------2-----------|
--2------2------3--2--|--0------0--3---2---0--|--3------3-----------|
--3------3------------|--2---------L----------|--3------3-----------|
----------------------|--3---------L----------|--1------1-----------|


  Am                    F                     Am                  
  Q.     Q.     Q       Q.     Q.     Q       Q.     Q.     Q     
---------------------|---------------------|---------------------|
--1------1-----------|--1------1------0----|--1------1-----------|
--2------2-----------|--2------2-----------|--2------2-----------|
--2------2------2----|--3------3-----------|--2------2------2----|
--0------0-----------|--3------3-----------|--0------0-----------|
---------------------|--1------1-----------|---------------------|


  F                     Gsus4                    G#                  
  H        Q    Q       Q.     S S Q    E  E     H        Q    Q     
---------------------|------------------------|---------------------|
--1------------------|---------3--------------|----------------4----|
--2--------2----4----|--5--------5-4----2--4--|--5------------------|
--3------------------|--5---------------------|--6--------6---------|
--3------------------|--5---------------------|--6------------------|
--1------------------|--3---------------------|--4------------------|


  A#sus4               
  H        H           
---------------------||
---------------------||
--8--------7--------*||
--8--------8--------*||
--8--------8---------||
--6--------6---------||




Duration Legend
---------------
W - whole

H - half
Q - quarter
E - 8th
S - 16th
T - 32nd
X - 64th
. - note dotted
|-n-|  - n-tuplets
Tap to rate this tab
 
# A B C D E F G H I J K L M N O P Q R S T U V W X Y Z