Song name
# A B C D E F G H I J K L M N O P Q R S T U V W X Y Z

Christy Moore - Ride On tab

-------------------------------------------------------------------------------
			     RIDE ON - Christy Moore
-------------------------------------------------------------------------------
Tabbed by: ixia
Email: jliu0121@gmail.com

Tuning:

Intro (x2)
e|---------------------------------------------------------------------------|
B|---------------------------------------------------------------------------|
G|-----------------5--8-7-8--5---------------0-------------------------------|
D|-------0---0-1/5-------------5-3--1-0-1--3---------------------------------|
A|-----3---3------------------------------------3----------------------------|
E|---3-----------------------------------------------------------------------|

For both verses + chorus, the pattern is: Cm Ab Bb Cm

eg:
   Cm
e|--------3-------3-------3-------3---|
B|----4-------4-------4-------4-------|
G|------5-------5-------5-------5-----|
D|--5-------5-------5-------5---------|
A|------------------------------------|
E|------------------------------------|

   Ab
e|--------4-------4-------4-------4---|
B|----4-------4-------4-------4-------|
G|------5-------5-------5-------5-----|
D|--6-------6-------6-------6---------|
A|------------------------------------|
E|------------------------------------|

  Bb
e|--------1-------1-------1-------1---|
B|----3-------3-------3-------3-------|
G|------3-------3-------3-------3-----|
D|--3-------3-------3-------3---------|
A|------------------------------------|
E|------------------------------------|

   Cm
e|--------3-------3-------3-------3---|
B|----4-------4-------4-------4-------|
G|------5-------5-------5-------5-----|
D|--5-------5-------5-------5---------|
A|------------------------------------|
E|------------------------------------|

ENDING: same as intro (play to fade)


[Alternative intro (x2)]
e|---------------------------------------------------------------------------|
B|---------------------------------------------------------------------------|
G|---------------------------------------------------------------------------|
D|---------------------10--13-12-13--10--------------------------------------|
A|------------------10------------------10--8----------8-10------------------|
E|--3/8-10-8-10--11---------------------------11-10-11------8----------------|
Tap to rate this tab
# A B C D E F G H I J K L M N O P Q R S T U V W X Y Z