Song name
# A B C D E F G H I J K L M N O P Q R S T U V W X Y Z

Christy Nockels - Healing Is In Your Hands tab

Christy Nockles
Healing is In Your Hands
From "Passion: Awakening"
Tabbed by thechadmiller (Twitter)

This is obviously a very piano heavy song, but I've transcribed the lead 
parts to play on guitar. See below for tabs.

For strumming on the guitar, I play all of these as bar chords (personally)

The actual chord for D/C#
e|-------|
B|-------|
G|--6----|
D|--7----|
A|--4----|
E|-------|

86 BPM
Intro:
D      

Verse 1:
D         D/C#       Bm7           A
No mountain, No valley, No gain or loss we know
      Em7               A
Could keep us from Your love

Verse 2
D         D/C#         Bm7           A
No sickness, No secret, No chain is strong enough
    Em7              A
To keep us from Your love
    Em7              A
To keep us from Your love

Chorus:
       D Asus     Bm7 F#m7           G       D/F#
How high,     How wide,    No matter where I am
          F#m7     G
Healing is in Your Hands
       D Asus     Bm7 F#m7             G       D/F#
How deep,      How strong, Now by Your grace I stand
           F#m7    G    
Healing is in Your Hands

Verse 3:
D         D/C#         Bm7           A
Our present, Our future, Our past is in Your hands
     Em7             A
Were covered by Your blood
     Em7             A
Were covered by Your blood

Chorus

Bridge
D            D/C#          Bm7                D/A
In all things, We know that, We are more than conquerors.
    Em7             A
You keep us by Your love (Repeat Once)
    Em7             Asus
You keep us by Your love

Chorus

Here is the first verse. Use this same picking pattern and fingering for
the rest of the song. Very easy and very effective. You need to have a 
bass playing the root notes to fill out the sound.


    D              D/C#          Bm7            A
e|---------------------------------------------------------------------|
B|---------------------------------------------------------------------|
G|--7---7---7---7---6---6---6---6---7---7---7---7---9---9---9---9------|
D|----7---7---7---7---7---7---7---7---7---7---7---7---7---7---7---7----|
A|---------------------------------------------------------------------|
E|---------------------------------------------------------------------|
   Em7             A
e|---------------------------------------------------------------------|
B|---------------------------------------------------------------------|
G|--7---7---7---7---9---9---9------------------------------------------|
D|----9---9---9---9---7---7--------------------------------------------|
A|---------------------------------------------------------------------|
E|---------------------------------------------------------------------|

For the chorus, use the A pattern for the F#m7, and the Em7 for the G.
Here are the actual full chord fingerings:
   F#m7   G
e|--------7------------------------------------------|
B|--10----8------------------------------------------|
G|--9-----7------------------------------------------|
D|--7-----9------------------------------------------|
A|-(9)---(10)----------------------------------------|
E|---------------------------------------------------|

Let me know if this doesn't make sense...

If you have any input or corrections, check out my blog for more info and 
let me know if you have any songs you need help with. God bless!
Tap to rate this tab
 
# A B C D E F G H I J K L M N O P Q R S T U V W X Y Z