Guitaretab - guitar tabs
Song name
# A B C D E F G H I J K L M N O P Q R S T U V W X Y Z

Chrome - Third From The Sun tab

----------------------------------------------|
                 THIRD FROM THE SUN - Chrome -|
http://www.staticwhitesound.com/chrome/

Album: Third From the Sun (1982)
Tabbed by: BAM!
Email: dsk4g76@yahoo.com

Tuning: standard

At the very least you need heavy distortion
and a flanger to even come close to the
sound on the song.

intro:
e|--------------------------------|
B|--------------------------------|
G|--------------------------------|
D|-------------0------------------|
A|-----2-----------3---2---3---0--|
E|-0-------3----------------------|

riff 1:
e|---0---0---0---0---0---0---0---0-|
B|-----0---------------0-----------|
G|---------------------------------|
D|-2-----------1---0---------------|
A|---------2---------------0-------|
E|-----------------------------3---|
let notes ring as much as possible
[ Tab from: http://www.guitaretab.com/c/chrome/161129.html ]
riff 2:
e|---------------------------------------------|
B|---------------------------------------------|
G|---mute-and----------------------------------|
D|---slide-up/down-----------------------------|
A|-----the neck--------------------------------|
E|--------------------7--3-/-10-----7--3-/-10--|

solo:
e|------------------0------|
B|--------------------3----|
G|-2-1--------2-1-------1--|
D|-----0-2--------0--------|
A|-------------------------|
E|-------------------------|
this repeats in different variations

song order

intro  - 2x
riff 1 - 4x
riff 2 - 2x
riff 1 - 4x
riff 2 - 2x
riff 1 - 4x
solo   - 8x
riff 2 - 2x
riff 1 - 4x

It ends on low E, followed by some more
noise before fading out on riff 1.

| /  slide up
| \  slide down
| h  hammer-on
| p  pull-off
| ~  vibrato
| +  harmonic
| x  Mute note
===============================================================================