Song name
# A B C D E F G H I J K L M N O P Q R S T U V W X Y Z

Chromeo - Needy Girl Acoustic tab

-------------------------------------------------------------------------------
			     NEEDY GIRL - CHROMEO
-------------------------------------------------------------------------------


Tuning: Standard
Capo on 3rd fret.

Okay, this is my acoustic interpretation of this song, hope you like this.


*Note* I prefer to play this song with a lot of palm mute, it gives it a cool and groovy sound.
And you have to listen to the song to figure out the strumming, I
think there is no perfect strum for this, just listen to the drums
and the keyboard and you will be jamming along.

Intro/Riff 1 Guitar 1
E ||---------------------|
B ||---------------------|
G ||---------------0-----|
D ||-------0-0-0h2---2---|
A ||---0h2---------------|
E ||---------------------|

Verse/Riff 2 Guitar 1
E ||-------------------------------------------------------------|
B ||-------------------------------------------------------------|
G ||-------------------------------------------------------------|
D ||-----5-5-4-2---------5-5-4-2---------5-5-4-2---------5-5-4-2-|
A ||-2-2---------2-2-2-2---------3-3-3-3---------3-3-3-3---------|
E ||-------------------------------------------------------------|P.M


Intro/Verse Guitar 2(Em and C)
E ||----------------------------------|
B ||----------------------------------|
G ||-0-0-0-0-0-0-0--0-0-0-0-0-0-0-0---|
D ||-2-2-2-2-0-2-2--0h2-2-2-2-0-2-2---|
A ||-2-2-2-2-0-2-2--0h2-2-2-2-0-2-2---|
E ||-0-0-0-0-0-0-0--0-0-0-0-0-0-0-0---|
                                      |
E ||----------------------------------|
B ||-0h1-1-1-1-1-1-1-0h1-1-1-1-1-1-1--|
G ||-0---0-0-0-0-0-0-0---0-0-0-0-0-0--|
D ||-0h2-2-2-2-0-2-2-0h2-2-2-2-0-2-2--|
A ||-0h3-3-3-3-3-3-3-0h3-3-3-3-3-3-3--|
E ||----------------------------------|

.:Guitar 1 plays Riff 2 while Guitar 2 strums the chords:.

Em
Wanna be by yourself, and no one else
      C
Alright
Em
Now you wanna go out, wanna scream and shout
      C (Guitar 1 plays Riff 1 at the end)
Tonight
Em
You want some space, now get out of my face
      C
Alright
Em
Now you want me back, put your life on track
      C (Guitar 1 plays Riff 1 at the end)
Tonight

Em
You're a needy girl, I can tell when I look in your big brown eyes
C
You want my world, but how can I do yours if I can't do mine?
Em
I try to change, but somehow it's weird I don't feel the same
C                                              (Guitar 1 plays Riff 1)
It's all about, what you want, what you say, how you feel, how you play the game

Chorus Guitar 1
Same as the verse


Chorus Guitar 2
E ||----------------------------------------------------------------------|
B ||-------0---0---0--------0----------------0---0---0-------0------------|
G ||--0~-----0-------0--------0------0-0--0~---0-------0-------0------0-0-|
D ||--2~---------2-----2-2------2-2--2-2--2~-------2-----2-2-----2-2--2-2-|
A ||--2~-----------------------------2-2--3~--------------------------3-3-|
E ||--0~-----------------------------0-0----------------------------------| x2

After the chorus I would suggest suggest some crazy freestyle strumming !

Solo
Guitar 1
E ||----------------------------------------------------------------------|
B ||----------------------------------------------------------------------|
G ||--7-7-9-9-----7-7-----------------------------------------------------|
D ||----------9-9-----7-7-9-9-5-5-7-7-----5-5-----------------------------|
A ||----------------------------------7-7-----5-5-7-----------------------|
E ||----------------------------------------------------------------------|

Guitar 2 strums Em and C


************************************

| /   slide up
| \   slide down
| h   hammer-on
| p   pull-off
| ~   vibrato
| +   harmonic
| x   Mute note
| b   Bend
| pb  Pre-bend
| br  Bend release
| pbr Pre-bend release
| brb Bend release bend

************************************
Tap to rate this tab
# A B C D E F G H I J K L M N O P Q R S T U V W X Y Z