Song name
# A B C D E F G H I J K L M N O P Q R S T U V W X Y Z

Chromeo - Mommas Boy tab

-------------------------------------------------------------------------------
			     Momma's Boy (solo) - Chromeo
-------------------------------------------------------------------------------
Tabbed by: KGreen

This is my first tab, feel free to improve upon it.


The notes are simply written out, you will have to figure out the timing/tempo on your own.
(it's very simple, just listen to the solo a few times)

Solo (2:10)
e|---------------------------------------------------------------------------|
B|---15b(17)---15---12----------------------------12---13---15---------------|
G|-----------------------14b(16)---12--------12------------------------------|
D|--------------------------------------14------------------------\14--------|
A|---------------------------------------------------------------------------|
E|---------------------------------------------------------------------------|


 Figure 1
e|---------------------------------------------------------------------------|
B|---------------------------------------------------------------------------|
G|----12---12-------------14\16---14-----------------------------------------|
D|--------------14---12----------------14br---12---------12---14-------------|
A|-------------------------------------------------\14-----------------------|
E|---------------------------------------------------------------------------|

 Climbing (played VERY fast)
e|-----2p0*--0---3p0--0---5p0--0---7p0--0---8p0--0---10p0--0---12p0--14\15---|
B|---3-----------------------------------------------------------------------|
G|---------------------------------------------------------------------------|
D|---------------------------------------------------------------------------|
A|---------------------------------------------------------------------------|
E|---------------------------------------------------------------------------|
*Pull-off to 0. Drag the string slightly with your finger as you pull-off to get a sound 
the E string.
Repeat through the entire climb.

 Figure 1 (repeated)
e|---------------------------------------------------------------------------|
B|---------------------------------------------------------------------------|
G|----12---12-------------14\16---14-----------------------------------------|
D|--------------14---12----------------14br---12---------12---14-------------|
A|-------------------------------------------------\14-----------------------|
E|---------------------------------------------------------------------------|

e|---------------------------------------------------------------------------|
B|---13---12---15----------------13p12---10----------------------------------|
G|------------------14\16---14------------------12~--------------------------|
D|---------------------------------------------------------------------------|
A|---------------------------------------------------------------------------|
E|---------------------------------------------------------------------------|

************************************

| /   slide up
| \   slide down
| h   hammer-on
| p   pull-off
| ~   vibrato
| +   harmonic
| x   Mute note
| b   Bend
| pb  Pre-bend
| br  Bend release
| pbr Pre-bend release
| brb Bend release bend

************************************
Tap to rate this tab
 
# A B C D E F G H I J K L M N O P Q R S T U V W X Y Z