Song name
# A B C D E F G H I J K L M N O P Q R S T U V W X Y Z

Chromeo - Needy Girl tab

intro
e|---------------------------------------------------------------|
B|---------------------------------------------------------------|
G|--------------3p0----------------------------------------------|
D|------3-3-3h5--------------------------------------------------|
A|--3h5----------------------------------------------------------|
E|---------------------------------------------------------------|

then this is the little techno bit later on in the song

e|-----------------------------------------------------------|
B|-----------------------------------------------------------|
G|--0-7-5-7-0-7-5-5-7-0-7-5-3-0------------------------------|
D|-----------------------------------------------------------|
A|-----------------------------------------------------------|
E|-----------------------------------------------------------|

very easy
Tap to rate this tab
 
# A B C D E F G H I J K L M N O P Q R S T U V W X Y Z