Chron Gen - Living Next Door To Alice tab

Band - Chron Gen
Song - Living Next Door To Alice (New World Cover)
Album - Chronic Generation

Tabbed By: Tyler Freear (SumFX)

Tuning: Standard (E A D G B E)

Dear Lord, This Has Got To Be THE Most Hilarious Song Ever,
Just Because Of That Intro!

/\= Slides
/=Pick Scrape
Dist.=Distrotion
p=Pull Off
b(x)= Bend Note To The Pitch Inside Brackets
r=Release Bend

Spoken Intro
(Im Sorry But I Have To Put It In XD)

Eins, Zwei, Drei, Veir!
|-2------------------|
|-2------------------|
|-3------------------|
|-4------------------|
|-4------------------|
|-2------------------|
Thats Not The Right F**cking Speed, You Stupid C**t!
Oi, Aye Aye, He Called Me A C**t, So Im Getting Embarrased.
Im Calling Yer A F**cking C**t As Well!
You Are A C**T, One, Two, Three, Four. Like That!
Yeeh!
One, Two, Three, Four :p
Im Not F**cking Doing It, If He Ses It Like That :(
One, Two, Three, Four!
|-2------------------|
|-2------------------|
|-3------------------|
|-4------------------|
|-4------------------|
|-2------------------|
STILL NOT FAST ENOUGH!

ONE!, TWO!, THREE!, FOUR!

////Song Starts////

Intro
Clean Tone
|-333333333333333333333333--|
|-333333333333333333333333--|
|-444444444444444444444444--|
|-555555555555555555555555--|
|-555555555555555555555555--|
|-333333333333333333333333--|

Verse
Clean Tone
|-333333333333333333333333--|
|-333333333333333333333333--|
|-444444444444444444444444--|
|-555555555555555555555555--|
|-555555555555555555555555--|
|-333333333333333333333333--|

|-333333333333--------------------------3333333333-|
|-333333333333-555555555555-77777-55555-3333333333-|
|-444444444444-555555555555-77777-55555-4444444444-|
|-555555555555-555555555555-77777-55555-5555555555-|
|-555555555555-333333333333-55555-33333-5555555555-|
|-333333333333--------------------------3333333333-|
                                             Dist.
|-333333333333--------------------------33333------|
|-333333333333-555555555555-77777-55555-33333------|
|-444444444444-555555555555-77777-55555-44444------|
|-555555555555-555555555555-77777-55555-55555------|
|-555555555555-333333333333-55555-33333-55555------|
|-333333333333--------------------------33333/////-|

Chorus
Distortion
|------------------------------------------------|
|------------------------------------------------|
|------------5555555555-777777-555555------------|
|-5555555555-5555555555-777777-555555-5555555555-|
|-5555555555-3333333333-555555-333333-5555555555-|
|-3333333333--------------------------3333333333-|

|------------------------------------------|
|------------------------------------------|
|------------5555555555-777777-555555------|
|-5555555555-5555555555-777777-555555-55-5-|
|-5555555555-3333333333-555555-333333-55-5-|
|-3333333333--------------------------33-3-|

Lead
Clean Tone
1st Verse
|-------------------|---------------------|
|-------------------|---------------------|
|-------------------|---------------------|
|-7-7/9--7-7-7-7\5--|-7-7-7-7/9--9-7-9-10-|
|-------------------|---------------------|
|-------------------|---------------------|

|-------------------------------|------------------------|
|-------------------------------|------------------------|
|---------5/7-9-7----7----------|------------------------|
|-10-9-7----------10---10--10-9-|-10-10-10-9-7----7-7/9--|
|-------------------------------|--------------10--------|
|-------------------------------|------------------------|

|-------------------|--------------------|
|-------------------|--------------------|
|-------------------|-7-9-7----7---------|
|-9-7-9-10--10-9-10-|-------10---10------|
|-------------------|---------------10---|
|-------------------|--------------------|

2nd & 3rd Verse
Clean Tone
|----------------------|-----------------------|
|----------------------|-----------------------|
|----------------------|-----------------------|
|-7-7-7-7/9--7-7-7-7\5-|-9-7-9--10-9-7--10-9-7-|
|----------------------|-----------------------|
|----------------------|-----------------------|

|-----------------------|------------------------|
|-----------------------|------------------------|
|-5/7-9-7----7----------|------------------------|
|---------10---10--10-9-|-10-10-10-9-7----7-7/9--|
|-----------------------|--------------10--------|
|-----------------------|------------------------|

|-------------------|----------------------|
|-------------------|----------------------|
|-------------------|-5/7-9-7----7---------|
|-9-7-9/10--10-9-10-|---------10---10------|
|-------------------|-----------------10---|
|-------------------|----------------------|

Outro
Distortion 
Keep Playing That G5 Untill The End!
|------------------------------------|
|------------------------------------|
|-7---5------------------------------|
|-7---5---55555555555555555555555555-|
|-5---3---55555555555555555555555555-|
|---------33333333333333333333333333-|

Outro Lead Comes In At: 3.25
Distortion
|-------------|-----------------------------------------------|
|-10b(12)r-8v-|-10p8-10p8-10b(11)-10b(11)-10b(11)--10b(12)r-8-|
|-------------|-----------------------------------------------|
|-------------|-----------------------------------------------|
|-------------|-----------------------------------------------|
|-------------|-----------------------------------------------|

G5
|-------------------|
|-------------------|
|-12----------------|
|-12----------------|
|-10----------------|
|-------------------|

Intro
Verse 1
Chorus
Verse 2
Chorus
Verse 3
Chorus
Outro
G5
Tap to rate this tab
 
# A B C D E F G H I J K L M N O P Q R S T U V W X Y Z