Chron Gen - Hounds Of The Night tab

Band - Chron Gen
Song - Hounds Of The Night
Album - Chronic Generation

Tabbed By: Tyler Freear (SumFX)

Tuning: Standard (E A D G B E)

Possibly One Of My Favorite Tracks Ever,
I Am Very Proud To Present 'Hounds Of The Night'!

Remember That One Of The Guitarists Uses A Flanger Effect On Most Of
The Tracks On The Album.

.=Palm Mute
/\ = Slides

Intro
|-2------2/5--4------4/7---|
|---3----3/6----5----5/8---|
|-----2--2/5------4--4/7---| x2
|--------------------------|
|--------------------------|
|--------------------------|

Pre Verse
|-22-2--55-5--44-4--77-7--|
|-33-3--66-6--55-5--88-8--|
|-22-2--55-5--44-4--77-7--|
|-------------------------|
|-------------------------|
|-------------------------|

Verse
|-22222222-55555555-44444444-77777777--|
|-33333333-66666666-55555555-88888888--|
|-22222222-55555555-44444444-77777777--|
|--------------------------------------|
|--------------------------------------|
|--------------------------------------|
  ........ ........ ........ ........

|-22222222-55555555-44444444-77777777--|
|-33333333-66666666-55555555-88888888--|
|-22222222-55555555-44444444-77777777--|
|--------------------------------------|
|--------------------------------------|
|--------------------------------------|
  ........ ........ ........ ....

Solo (Verse Backing)
|------------------------------------------------------|
|------------------------------------------------------|
|-4/7---10-10--9-7---7--9-7---7--9-7---7--9-7---7-9-7--|
|------------------9--------9--------9--------9--------|
|------------------------------------------------------|
|------------------------------------------------------|

|--------------------|
|--------------------|
|-2--2/5--5/4--4/7---|
|--------------------|
|--------------------|
|--------------------|

Post Solo
|-9-9-9-9-9-9--121212121212-555555-777777-|
|-101010101010-131313131313-666666-888888-|
|-9-9-9-9-9-9--121212121212-555555-777777-|
|-----------------------------------------|
|-----------------------------------------|
|-----------------------------------------|

Lead Over Pre Verse
|-2------5------4------7-----|
|---3------6------5------8---|
|-----2------5------4------7-|
|----------------------------|
|----------------------------|
|----------------------------|

Bridge
|-22--55--4--77--22--55--44--77--|
|-33--66--5--88--33--66--55--88--|
|-22--55--4--77--22--55--44--77--| x2
|--------------------------------|
|--------------------------------|
|--------------------------------|

Outro
|-1414-14--55-5--44-4--77-7--|-22-2--55-5--44-4--77-7--|
|-1515-15--66-6--55-5--88-8--|-33-3--66-6--55-5--88-8--|
|-1414-14--55-5--44-4--77-7--|-22-2--55-5--44-4--77-7--|
|----------------------------|-------------------------|
|----------------------------|-------------------------|
|----------------------------|-------------------------|

D
|-2-----------------|
|-3-----------------|
|-2-----------------|
|-------------------|
|-------------------|
|-------------------|

Structure
Intro
Pre Verse x2
Verse 
Pre Verse x2
Verse
Pre Verse
Solo (Rhythm Plays Verse)
Post Solo
Verse
Pre Verse x2
Pre Verse x2 (With Lead)
Bridge
Outro x2
D

Thats It, Fantastic Track From A Fantastic Band!
Rate & Comment Please!
Tap to rate this tab
 
# A B C D E F G H I J K L M N O P Q R S T U V W X Y Z