Song name
# A B C D E F G H I J K L M N O P Q R S T U V W X Y Z

Chron Gen - Lies tab

Band - Chron Gen
Song - Lies
Album - Chronic Generation

Tabbed By: Tyler Freear (SumFX)

Tuning: Standard (E A D G B E)

Great Way To Kick Off An Amazing Punk Record!

Remember That One Of The Guitarist Uses A Flanger Effect On Pretty Much
Every Track On This Album.

Lies
Intro
|-------------------|
|-------------------|
|-9-----------------|
|-9-----------------|
|-7-----------------|
|-------------------|

Verse
|------------------------------|
|------------------------------|
|----------------------44444-2-|
|-555555-44444--555555-44444-2-|
|-555555-44444--555555-22222-0-|
|-333333-22222--333333---------|

Chorus
|------------------------|
|------------------------|
|---------------44444444-|
|-555555-444444-44444444-|
|-555555-444444-22222222-|
|-333333-222222----------|

Structure
Intro
Feedback
Verse x4
Chorus x2
Verse x2
Chorus x2
Verse x2
Chorus x2
Verse x2
Chorus x2

Thats All There Is To This Track!

Rate & Comment Please
Tap to rate this tab
 
# A B C D E F G H I J K L M N O P Q R S T U V W X Y Z