Song name
# A B C D E F G H I J K L M N O P Q R S T U V W X Y Z

Chronic Future - Say Goodbye tab

-------------------------------------------------------------------------------
			     Say Goodbye - Daiki Kasho
-------------------------------------------------------------------------------
Tabbed by: J B/1
Email: jamie.beeson@hotmail.co.uk

Tuning: EADGBe

Intro
Guitar1
e|---------------------------------------------------------------------------|
B|---------------------------------------------------------------------------|
G|---------------------------------------------------------------------------|
D|-------9---9---9---9--------8---8---8---8--------6---6---6---6---4h6---6---|
A|-------------------------------------------44444---4---4---4---4-----4-----|
E|-99999---9---9---9----99999---9---9---9------------------------------------|  x2

Guitar 2
e|----------------------------------|-----------------------------------------------------|
B|----------------------------------|-----------------------------------------------------|
G|--4444--6666666--99999999----9h11-|--4444---6666666----99999999-----111111111---11h13---|
D|----------------------------------|-----------------------------------------------------|
A|----------------------------------|-----------------------------------------------------|
E|----------------------------------|-----------------------------------------------------|  x2


Guitar 1
e|-------------------------------------------------------------------------|
B|-------------------------------------------------------------------------|
G|-------------------------------------------------------------------------|
D|--77777777-----9---9---9---9------------44444444-----6---6---6---6-------|
A|--77777777---7---7---7---7---7----------44444444---4---4---4---4---4-----|
E|--55555555---5---5---5---5---5----------22222222---2---2---2---2---2-----|

e|---------------------------------------------------------------------------|
B|---------------------------------------------------------------------------|
G|---------------------------------------------------------------------------|
D|--66666666--6---6---6---6---4h6--666666------------------------------------|
A|--44444444----4---4---4---4------444444------------------------------------|
E|---------------------------------------------------------------------------|


Verse

Guitar1
e|---------------------------------------------------------------------------|
B|---------------------------------------------------------------------------|
G|---------------------------------------------------------------------------|
D|-------9---9---9---9--------8---8---8---8--------6---6---6---6---4h6---6---|
A|-------------------------------------------44444---4---4---4---4-----4-----|
E|-99999---9---9---9----99999---9---9---9------------------------------------| 


Chorus

Guitar 1
e|-----------------------------------------------------------------------------------------------|
B|-----------------------------------------------------------------------------------------------|
G|-----------------------------------------------------------------------------------------------|
D|--99999999---44444444----99999999---66666666-----77777777----44444444-----99999999-----66666666|
A|--77777777---44444444----77777777---44444444-----77777777----44444444-----77777777-----44444444|
E|--55555555---22222222----55555555---22222222-----55555555----22222222-----55555555-----22222222|

Guitar 2 
e|---------------------------------------------------------------------------|
B|---------------------------------------------------------------------------|
G|---------------------------------------------------------------------------|
D|------------------------------------6666-4444----222222--------------------|
A|-------------------------------------------------------------444444--------|
E|---------------------------------------------------------------------------|


Break

Guitar1 
e|---------------------------------------------------------------------------|
B|---------------------------------------------------------------------------|
G|---------------------------------------------------------------------------|
D|-------9---9---9---9--------8---8---8---8--------6---6---6---6---4h6---6---|
A|-------------------------------------------44444---4---4---4---4-----4-----|
E|-99999---9---9---9----99999---9---9---9------------------------------------|  x2

Guitar 2
e|----------------------------------|
B|----------------------------------|
G|--4444--6666666--99999999----9h11-|
D|----------------------------------|
A|----------------------------------|
E|----------------------------------| on the second time

Guitar 1
e|-----------------------------------------------------------------------------------------------|
B|-----------------------------------------------------------------------------------------------|
G|-----------------------------------------------------------------------------------------------|
D|--99999999---44444444----99999999---66666666-----77777777----44444444-----77777777-----99999999|
A|--77777777---44444444----77777777---44444444-----77777777----44444444-----77777777-----99999999|
E|--55555555---22222222----55555555---22222222-----55555555----22222222-----55555555-----77777777|

Outro

Guitar 1
e|---------------|---------------------------------------------------------------------------|
B|---------------|---------------------------------------------------------------------------|
G|-6666666666----|---------------------------------------------------------------------------|
D|-6666666666----|---66666666666666----99999999999999----22222222222222----77777777777777----|
A|-4444444444----|---66666666666666----99999999999999----22222222222222----77777777777777----|
E----------------|---44444444444444----77777777777777----00000000000000----55555555555555----| X2
              X1
Guitar 2
e|---------------|---------------------------------------------------------------------------|
B|---------------|---------------------------------------------------------------------------|
G|--------9h11p9-|---------------------------------------------------------------------------|
D|-99999---------|----66666666666666----99999999999999---666666666666666----77777777777777---|
A|---------------|---------------------------------------------------------------------------|
E|---------------|---------------------------------------------------------------------------| X2
              X1

| /  slide up
| \  slide down
| h  hammer-on
| p  pull-off
| ~  vibrato
| +  harmonic
| x  Mute note
===============================================================================
Tap to rate this tab
# A B C D E F G H I J K L M N O P Q R S T U V W X Y Z