Song name
# A B C D E F G H I J K L M N O P Q R S T U V W X Y Z

Chronic Future - Memories In F Minor tab

I can't believe these guys didn't make it huge when this album came out! It's definately 
of my top three.

Tabbed by the Jackal

Drop D

Intro/Verse (all upstrokes)
e|--8---8---8---8--8--8--8--8--4--4--4--4--6--6--6--6--------------------------|
B|--9---9---9---9--8--8--8--8--6--6--6--6--8--8--8--8--------------------------|
G|-10-10-10-10--8--8--8--8--6--6--6--6--8--8--8--8-----------------------------|
D|-----------------------------------------------------------------------------|
A|-----------------------------------------------------------------------------|
D|-----------------------------------------------------------------------------|

Chorus
e|-----------------------------------------------------------------------------|
B|-----------------------------------------------------------------------------|
G|------------------------------6666666688888888-------------------------------|
D|--33333333111111116666666688888888-------------------------------------------|
A|--33333333111111114444444466666666-------------------------------------------|
D|--3333333311111111-----------------------------------------------------------|

Bridge after second chorus, play until screaming starts
e|-----------------------------------------------------------------------------|
B|-----------------------------------------------------------------------------|
G|--1010101010101010888888886666666633333333-----------------------------------|
D|--1010101010101010888888886666666633333333-----------------------------------|
A|----8--8-8--8--8--8-8--8-666666664444444411111111----------------------------|
D|-----------------------------------------------------------------------------|

Play this when the screaming starts
e|-----------------------------------------------------------------------------|
B|-----------------------------------------------------------------------------|
G|-1010101010101010888888886666666688888888------------------------------------|
D|-1010101010101010888888886666666688888888------------------------------------|
A|---8--8-8--8--8-8--8--8666666664444444466666666------------------------------|
D|-----------------------------------------------------------------------------|

Yarr, play this and rocketh thy mateys!
Tap to rate this tab
# A B C D E F G H I J K L M N O P Q R S T U V W X Y Z