Guitaretab - guitar tabs
Song name
# A B C D E F G H I J K L M N O P Q R S T U V W X Y Z

Chrono Cross - Prisoners Of Fate tab

I noticed no one else had a regular tab for this, so here it is.  It's really sad and 
great with
low distortion, echo, chorus, and plenty of reverb.
Enjoy!

E|-----------------------------------------------------------------------------|
B|--------------------------------(4--8-6)------------------------------------|
G|7-----3--------7-------------------------------------------------------------|
D|----------------------8-----5------------------------------------------------|
A|-----------------------------------------------------------------------------|
E|-----------------------------------------------------------------------------|

E|-----------------------------------------------------------------------------|
B|-------8--6-------9--9--8-6--------------------------------------------------|
G|5--7-8------5--7-------------7-8--0-5--3-------------------------------------|
D|-----------------------------------------------------------------------------|
A|-----------------------------------------------------------------------------|

[ Tab from: http://www.guitaretab.com/c/chrono-cross/112289.html ]
E|---------------15------------16-16--15---------------------15----------------|
B|--------15-16-----18--15-16-------------18--16--18--15--16-------------------|
G|15--17-----------------------------------------------------------------------|
D|-----------------------------------------------------------------------------|
A|-----------------------------------------------------------------------------|


E|-15-----------------------15---------16-15-----------------------------------|
B|------18--15------15--18------16-15---------18--16--15-16----16-16--18--15---|
G|----------------------------------------------------------17-----------------|
D|-----------------------------------------------------------------------------|
A|-----------------------------------------------------------------------------|
E|-----------------------------------------------------------------------------|

E|-----------------------------------------------------------------------------|
B|-----------------------------------------------------------------------------|
G|17~~~~~~~15~~~~~~~17~~~~~~~~-------------------------------------------------|
D|-----------------------------------------------------------------------------|
A|----------------------I don't know the acoustic part here -------------------|
E|-----------------------------------------------------------------------------|
Related for Prisoners Of Fate tab