Song name
# A B C D E F G H I J K L M N O P Q R S T U V W X Y Z

Chrono Cross - Home Galdov tab

-------------------------------------------------------------------------------
			  Galdov Village ~Home - Chrono Cross
-------------------------------------------------------------------------------



Tabbed by:Xaxu
Tuning:Standard


Guitar 1 plays melody and Guitar 2 plays rhythm.
The video used for timing is here 
http://www.youtube.com/watch?v=wBpLL7DmIdg


G2 0:01 - 0:06
e|-------------------------------|
B|----3--3---3--3---3--3---3--3--|
G|--0------0------0------0-------|
D|-------------------------------|
A|-------------------------------|
E|-------------------------------|


  0:07 - 0:12
e|--10--7--10--8----8--7---------------------7--|
B|---------------10------8--10------7--8--10----|
G|-----------------------------7--9-------------|
D|----------------------------------------------|
A|----------------------------------------------|
E|----------------------------------------------|

e|-------------------------------|
B|----3--3---3--3---3--3---3--3--|
G|--0------0------0------0-------|
D|-------------------------------|
A|-------------------------------|
E|-------------------------------|
 

  0:13 - 0:19
e|--10--7--10--8----8--7---------7-----|
B|---------------10------8--10-----10--|
G|-----------------------------7-------|
D|-------------------------------------|
A|-------------------------------------|
E|-------------------------------------|

e|-------------------------------|
B|----3--3---3--3---3--3---3--3--|
G|--0------0------0------0-------|
D|-------------------------------|
A|-------------------------------|
E|-------------------------------|


  0:20 - 0:29
e|----------------10--8--7----------------------------------|
B|--7--8--10--8------------10--8--10---8--7--8--10p8--7--8--|
G|--------------7--------------------9----------------------|
D|----------------------------------------------------------|
A|----------------------------------------------------------|
E|----------------------------------------------------------|


  0:30 - 0:35
e|-------------------------------|
B|----3--3---3--3---3--3---3--3--|
G|--0------0------0------0-------|
D|-------------------------------|
A|-------------------------------|
E|-------------------------------|


  0:36 - 0:40
e|--10--7--10--8----8--7---------------------7--|
B|---------------10------8--10------7--8--10----|
G|-----------------------------7--9-------------|
D|----------------------------------------------|
A|----------------------------------------------|
E|----------------------------------------------|

e|-------------------------------|
B|----3--3---3--3---3--3---3--3--|
G|--0------0------0------0-------|
D|-------------------------------|
A|-------------------------------|
E|-------------------------------|


  0:41 - 0:46
e|--10--7--10--11--10--8--7----7--8--8--7h8p7--------|
B|--------------------------10----------------10--8--|
G|---------------------------------------------------|
D|---------------------------------------------------|
A|---------------------------------------------------|
E|---------------------------------------------------|

e|-------------------------------|
B|----3--3---3--3---3--3---3--3--|
G|--0------0------0------0-------|
D|-------------------------------|
A|-------------------------------|
E|-------------------------------|


  0:47 - 0:56
e|--10--7--10--8----8--7---------------------7--10--7--10--11--10--8--|
B|---------------10------8--10------7--8--10--------------------------|
G|-----------------------------7--9-----------------------------------|
D|--------------------------------------------------------------------|
A|--------------------------------------------------------------------|
E|--------------------------------------------------------------------|


  0:56 - 1:09
e|--7----7--8--8--7h8p7----------------------10--8--7-----------------------------------|
B|----10----------------10--8--7--8--10--8------------10--8--10--8---7--8--8h10p8--7----|
G|-----------------------------------------7-----------------------9-----------------7--|
D|--------------------------------------------------------------------------------------|
A|--------------------------------------------------------------------------------------|
E|--------------------------------------------------------------------------------------|


  1:11 - 1:27
e|-----------------10--10--8--7---------------------------------------------|
B|--8--10--8--7--8--------------10--8--10--8--7-----------------------------|
G|----------------------------------------------7----------------7----9-----|
D|------------------------------------------------7--9--7--9--10---10---10--|
A|--------------------------------------------------------------------------|
E|--------------------------------------------------------------------------|


  1:28 - 1:32
e|-------------7----7--8--7----------------------------|
B|--7h8--8--10---10---------10--8--10------10----------|
G|------------------------------------9--7----6--7--9--|
D|-----------------------------------------------------|
A|-----------------------------------------------------|
E|-----------------------------------------------------|

     
  1:33 - 1:42                         
e|-----------------------------------------------------------|
B|--7--7--7--8--8--8-----5--5--5--6--6-----3--3--3--4--4-----|
G|--5--5--5--7--7--7--7--3--3--3--5--5--6--1--1--1--3--3--3--|
D|--------------------7-----------------5-----------------3--|
A|-----------------------------------------------------------|
E|-----------------------------------------------------------|


  1:43 - 1:49                                        
e|--8--7-------7--------------------7--8--7--------|
B|-------8--10---8---8--7--8--8--10---------10--8--|
G|-----------------7-------------------------------|
D|-------------------------------------------------|
A|-------------------------------------------------|
E|-------------------------------------------------|



| /  slide up
| \  slide down
| h  hammer-on
| p  pull-off
| ~  vibrato
| +  harmonic
| x  Mute note
===============================================================================
Tap to rate this tab
# A B C D E F G H I J K L M N O P Q R S T U V W X Y Z