Song name
# A B C D E F G H I J K L M N O P Q R S T U V W X Y Z

Chrono Cross - Bend Of Time tab

Bend of Time
Chrono Cross
By: Yasunori Mitsuda

This is the song that you hear when you go to the island right under
themain island called the "Bend of Time".  The song is also named
after the place

|-5-----0-2-3---0-|-----------5-----|-0-2-3-2-5-0-------|
|-----3-------2---|-3-------3-----3-|-----3-----3-----2-|
|---2---------2---|---2---2-----2---|-----4-----0---4-2-|
|-0---------0-----|-0-5---5---0-----|-----5-0-----2-----|
|-----------------|-----5-----------|-----------0-------|
|-----------------|-----------------|-------------------|


|---5-----0-2-3---|-0-2-----------2-|-0-----------------|
|-3-----3-------2-|---3-------3-----|---3-3-------------|
|-----2---------3-|---4-----4-0-----|-----2-------------|
|---0---------0---|-4---4-----2-----|-----5-0-4---------|
|-----------------|-1-2---0-----2---|-0---5---5---------|
|-----------------|---------4-0-----|-------------------|

|-2-3-5-10-9-7----|-5-5---0-2-3-2-7-|-------0-2-0-------|
|-----3-----------|-------2-----3---|-7-3-------3---2---|
|-----2-----------|-------0-----2---|---0-------2---2---|
|-----0--------0--|-----2-----------|---0---------2-----|
|-------9---------|---0---0-----2---|-----2-----0-------|
|------------3----|-----------------|---0---------------|

                            either
|-2-2-5-10-9-7----|-5-5-----(0)-----|-----------2-3-0-----|
|-----3-----------|---5---------7-8-|-7---3---------3---2-|
|-----2-----------|---6---7-(9)-7---|---------------2---2-|
|-----0-----------|-----------------|-------0---------2---|
|-------9------0--|---0-7-----------|-9-------4-----0-----|
|------------3----|-------6-----7---|---5-3---5-----------|


Repeat from the begining as many times as you like.

Nathan B.
Tap to rate this tab
# A B C D E F G H I J K L M N O P Q R S T U V W X Y Z