Song name
# A B C D E F G H I J K L M N O P Q R S T U V W X Y Z

Chrono Cross - Nikkis Concert tab

Help us improve GuitareTab! Take a short survey!
Chrono Cross
Nikki's Concert
tabbed by Eric Hansen(Atilla and the Huns)

The song is basically 2 main themes separated with a little doohicky in between.


Theme 1.

E --------------10------------------------------------10-----12-13-12-10----10--------------------|
B -10--10-12-13------10--10-12-13-12-----10--10-12-13-----10-------------13----13-12-10-----------|
G -----------------------------------12-----------------------------------------------------------|
D ------------------------------------------------------------------------------------------------|
A ------------------------------------------------------------------------------------------------|
E ------------------------------------------------------------------------------------------------|

E --------------10-----------------------------------10-------------------------------------------|
B -10--10-12-13-----10--10-12-13-12-----10--10-12-13-------10-------------------------------------|
G ----------------------------------12------------------12----------------------------------------|
D ------------------------------------------------------------------------------------------------|
A ------------------------------------------------------------------------------------------------|
E ------------------------------------------------------------------------------------------------|

Theme 2.

E -------10-10-10-12-10---------------------------------------------------------------------------|
B ----10----------------13-12-13-10----10-13-13-12-10----10-12-10---------------------------------|
G -12-------------------------------12----------------12------------------------------------------|
D ------------------------------------------------------------------------------------------------|
A ------------------------------------------------------------------------------------------------|
E ------------------------------------------------------------------------------------------------|

E -------10-10-10-12-10-------------------15-15-14-12-10----10------------------------------------|
B ----10----------------13-12-13-10----10----------------13---------------------------------------|
G -12-------------------------------12------------------------------------------------------------|
D ------------------------------------------------------------------------------------------------|
A ------------------------------------------------------------------------------------------------|
E ------------------------------------------------------------------------------------------------|

In between part.

E ------------------------------------------------------------------------------------------------|
B -12-13-10-13-12----10-----12-13-10-13-12----10--12-13-10-13-12----10-----12-13-10---------------|
G ----------------12----10-----------------12--------------------12----10-----------10-12---------|
D ------------------------------------------------------------------------------------------------|
A ------------------------------------------------------------------------------------------------|
E ------------------------------------------------------------------------------------------------|

I'm not sure that the in between part is correct, but I did my best by ear.  If anyone has the correct tabs,
feel free to post them.
Related for Nikkis Concert tab