Song name
# A B C D E F G H I J K L M N O P Q R S T U V W X Y Z

Chthonic - Exultant Suicide tab

 Intro

|-----------------------------|
|-----------------------------|
|-----------------------------| X3
|9---------8---4--5552--4440--|
|9---------8---4--5552--4440--|
|9---------8---4--5552--4440--|
                   ..    ..

|-----------------------------|
|-----------------------------|
|-----------------------------|
|9---------8---4--555222444000|
|9---------8---4--555222444000|
|9---------8---4--555222444000|
                   .. .. .. ..
 Verse
 
|-------------------------------------------------------|
|-------------------------------------------------------|
|-------------------------------------------------------| X2
|9---5-4-8--9-8-5--2--4--0--9---5-4-8--9-8----------5-4-|
|9-------8--9-8-5--2--4--0--9-------8--9-8--------------|
|9-------8--9-8-5--2--4--0--9-------8--9-8-475975254----|

 Pre-Chorus
 This part is mostly correct but the last part has 
 a few mistakes
|-------------------------------------------------------|
|-------------------------------------------------------|
|-------------------------------------------------------| X2
|-------------------------------------------------------|
|9--------------------------9---------------------------|
|9--9121198--4--5--2--4--0--9--9121192--4--5--2--4--5---|

 Chorus 

|--------------------------------|
|--------------------------------|
|--------------------------------| X4
|6------6------6------8---9-8-4--|
|4------4------4------6---7-6-2--|
|--------------------------------|


|------------|
|------------|
|-Pickslide\-|
|------------|
|------------|
|------------|

 Repeat all of the above (apart
 from the intro)
 Then play

|-----------------------------------------------------|
|-----------------------------------------------------|
|----------98------------98------------98-------------|
|6~----------67~-----------64~-----------67~---6h7p6--|
|-----------------------------------------------------|
|-----------------------------------------------------|

Again this part is not 100% right but it sounds fine
|---------------------------------------------------------------
|---------------------------------------------------------------
|---------------------------------------------------------------
|9-9-6-7-999-999-9-6-7-999-998-8-6-7-888-888-8-6-7-888-885-5-6-7
|9-9-----999-999-9-----999-998-8-----888-888-8-----888-885-5----
|9-9-----999-999-9-----999-998-8-----888-888-8-----888-885-5----
 . .     ... ... .     ... ... .     ... ... .     ... ... .
-----------------------------------------|
-----------------------------------------|
-----------------------------------------|
555-555-5-6-7-555-554-4------------------|
555-555-5-----555-554-4-5-4--0h2---------|
555-555-5-----555-554-4----------4545754-|
... ... .     ... ... .          .......

|--|      |--|      |-|      |-|      |--|      |--|      |--|      |--|
|--|      |--|      |-|      |-|      |--|      |--|      |--|      |--|
|13| X32  |11| X32  |9| X32  |8| X32  |16| X32  |14| X32  |13| X32  |10| X32
|--|      |--|      |-|      |-|      |--|      |--|      |--|      |--|
|--|      |--|      |-|      |-|      |--|      |--|      |--|      |--|
|--|      |--|      |-|      |-|      |--|      |--|      |--|      |--|

 Reapet the chorus 

 Ending

|-------------------------------------------------------|
|-------------------------------------------------------|
|-------------------------------------------------------| X2
|-------------------------------------------------------|
|-------------------------------------------------------|
|9--9121198--4--5--2--4--0--9--9121194--5--11--2--4--8--|

|---|
|---|
|---|
|-6-|
|-4-|
|---|


Sorry its not all perfect but its only my first tab.
Hope you enjoy it!
Tap to rate this tab
 
# A B C D E F G H I J K L M N O P Q R S T U V W X Y Z