Song name
# A B C D E F G H I J K L M N O P Q R S T U V W X Y Z

Chthonic - Takao tab

CHTHONIC

TAKAO

B-E-A-D-G-B-E

*=PALM MUTE

TABBED BY- andherembrace




------------------------------------------------------------------------|
------------------------------------------------------------------------|
------------------------------------------------------------------------|
------------------------------------------------------------------------|
-*-----------------*-----------------*-----------------*----------------|
-7-******-7-******-7-******-7-******-2-******-2-******-2-******-2-******|
-5-555555-5-555555-5-555555-5-555555-0-000000-0-000000-0-000000-0-000000|


------------------------------------------------------------------------|
------------------------------------------------------------------------|
------------------------------------------------------------------------|
------------------------------------------------------------------------|
-*-----------------*-----------------*-----------------*----------------|
-7-******-7-******-7-******-7-******-2-******-2-******-2-******-2-******|
-5-555555-5-555555-5-555555-5-555555-0-000000-0-000000-0-000000-0-000000|


-----------------------------------------------------------|
-----------------------------------------------------------|
---------------------ph------------------------------------|
---------------------9~~~----------------------------------|
-----------------------------------------------------------|
-7-------2-7------------------7-------2-7----------ps------|
-5|------0-5|-----------------5|------0-5|-----------\-----|


-----------------------------------------------------|
-----------------------------------------------------|
-----------------------------------------------------|
-----------------------------------------------------|
-*------------*------------*------------*------------|
-7-7-********-7-7-********-2-2-********-2-2-********-|
-5-5-55555555-5-5-55555555-0-0-00000000-0-0-00000000-|


-----------------------------------------------------|
-----------------------------------------------------|
-----------------------------------------------------|
-----------------------------------------------------|
-*------------*------------*------------*------------|
-7-7-********-7-7-********-2-2-********-2-2-********-|
-5-5-55555555-5-5-55555555-0-0-00000000-0-0-00000000-|


-------------------------------------------------|
-------------------------------------------------|
-------------------------------------------------|
-------------------------------------------------|
-------------------------------------------------|
-*-*-*-*-*-*-*-*-*-*-*-*-*-*-*-*-*-*-*-*-*-*-*-*-|
-5-5-5-5-5-5-5-5-5-5-5-5-5-5-5-5-5-5-5-5-5-5-5-5-|


-------------------------------------------------|
-------------------------------------------------|
-------------------------------------------------|
-------------------------------------------------|
-------------------------------------------------|
-*-*-*-*-*-*-*-*-*-*-*-*-*-*-*-*-*-*-*-*-*-*-*-*-|
-0-0-0-0-0-0-0-0-0-0-0-0-0-0-0-0-0-0-0-0-0-0-0-0-|


-------------------------------------------------|
-------------------------------------------------|
-------------------------------------------------|
-------------------------------------------------|
-------------------------------------------------|
-*-*-*-*-*-*-*-*-*-*-*-*-*-*-*-*-*-*-*-*-*-*-*-*-|
-5-5-5-5-5-5-5-5-5-5-5-5-5-5-5-5-5-5-5-5-5-5-5-5-|


-------------------------------------------------|
-------------------------------------------------|
-------------------------------------------------|
-------------------------------------------------|
-------------------------------------------------|
-*-*-*-*-*-*-*-*-*-*-*-*-*-*-*-*-*-*-*-*-*-*-*-*-|
-0-0-0-0-0-0-0-0-0-0-0-0-0-0-0-0-0-0-0-0-0-0-0-0-|


----------------------------------------------------|
----------------------------------------------------|
----------------------------------------------------|
--------------10----9-------------------------------|
**************---**---********-10-**-9-************-|
88888888888888---88---88888888----88---888888888888-|
----------------------------------------------------|


------------------------------------------------|
--------------____------------------------------|
-------------/    \----____-----___-------------|
------------9-10-9-0--/    \---/   \----____----|
************---------9-10-9-0-7-9-7-0--/    \---|
888888888888--------------------------8-10-8-0--|
------------------------------------------------|

--------------------------------------|
--------------------------------------|
--------------------------------------|
------------------------------10----9-|
--**********-10-**-9-********----**---|
7-7777777777----77---77777777----77---|
--------------------------------------|

              ___
 ------------/   \    ___----------------------|
------------7-8-7-0--/   \----____-------------|
--------------------8-9-8-0--/    \----____----|
----------------------------9-10-9-0--/    \---|
************-------------------------9-10-9-0--|
777777777777-----------------------------------|
-----------------------------------------------|


----------------------------------------------------|
----------------------------------------------------|
----------------------------------------------------|
--------------10---9--------------------------------|
-10-*-***-*-*----*---*-***-*-*--10-*-9-*-***-*-***--|
-8--8-888-8-8----8---8-888-8-8-----8---8-888-8-888--|
----------------------------------------------------|


---------------------------------------------------------------|
---____--------------------------------------------------------|
--/    \----____-----___---------------------------------------|
-9-10-9-0--/    \---/   \-------------------------------10---9-|
----------9-10-9-0-7-9-7-0-9-*-***-*-*-10-*-9-*-***-*-*----*---|
---------------------------7-7-777-7-7----7---7-777-7-7----7---|
---------------------------------------------------------------|
               ___
------------- /   \    ___---------------------|
-------------7-8-7-0--/   \----____------------|
---------------------8-9-8-0--/    \----____---|
-----------------------------9-10-9-0--/    \--|
-*-***-*-***--------------------------9-10-9-0-|
-7-777-7-777-----------------------------------|
-----------------------------------------------|


-----------------------------------------------------------|
-----------------------------------------------------------|
---------------------ph------------------------------------|
---------------------9~~~----------------------------------|
-----------------------------------------------------------|
-7-------2-7------------------7-------2-7----------ps------|
-5|------0-5|-----------------5|------0-5|-----------\-----|


-----------------------------------------------------|
-----------------------------------------------------|
-----------------------------------------------------|
-----------------------------------------------------|
-*------------*------------*------------*------------|
-7-7-********-7-7-********-2-2-********-2-2-********-|
-5-5-55555555-5-5-55555555-0-0-00000000-0-0-00000000-|


-----------------------------------------------------|
-----------------------------------------------------|
-----------------------------------------------------|
-----------------------------------------------------|
-*------------*------------*------------*------------|
-7-7-********-7-7-********-2-2-********-2-2-********-|
-5-5-55555555-5-5-55555555-0-0-00000000-0-0-00000000-|


-----------------------------------------------------------|
-----------------------------------------------------------|
---------------------ph------------------------------------|
---------------------9~~~----------------------------------|
-----------------------------------------------------------|
-7-------3-2------------------7-------3-2----------ps------|
-5|------1-0|-----------------5|------1-0|-----------\-----|


----------------------------------------------------|
----------------------------------------------------|
----------------------------------------------------|
--------------10----9-------------------------------|
**************---**---********-10-**-9-************-|
88888888888888---88---88888888----88---888888888888-|
----------------------------------------------------|


------------------------------------------------|
--------------____------------------------------|
-------------/    \----____-----___-------------|
------------9-10-9-0--/    \---/   \----____----|
************---------9-10-9-0-7-9-7-0--/    \---|
888888888888--------------------------8-10-8-0--|
------------------------------------------------|

--------------------------------------|
--------------------------------------|
--------------------------------------|
------------------------------10----9-|
--**********-10-**-9-********----**---|
7-7777777777----77---77777777----77---|
--------------------------------------|

              ___
-------------/   \    ___----------------------|
------------7-8-7-0--/   \----____-------------|
--------------------8-9-8-0--/    \----____----|
----------------------------9-10-9-0--/    \---|
************-------------------------9-10-9-0--|
777777777777-----------------------------------|
-----------------------------------------------|


----------------------------------------------------|
----------------------------------------------------|
----------------------------------------------------|
--------------10---9--------------------------------|
-10-*-***-*-*----*---*-***-*-*--10-*-9-*-***-*-***--|
-8--8-888-8-8----8---8-888-8-8-----8---8-888-8-888--|
----------------------------------------------------|

---------------------------------------------------------------|
---____--------------------------------------------------------|
--/    \----____-----___---------------------------------------|
-9-10-9-0--/    \---/   \-------------------------------10---9-|
----------9-10-9-0-7-9-7-0-9-*-***-*-*-10-*-9-*-***-*-*----*---|
---------------------------7-7-777-7-7----7---7-777-7-7----7---|
---------------------------------------------------------------|
               ___
------------- /   \    ___---------------------|
-------------7-8-7-0--/   \----____------------|
---------------------8-9-8-0--/    \----____---|
-----------------------------9-10-9-0--/    \--|
-*-***-*-***--------------------------9-10-9-0-|
-7-777-7-777-----------------------------------|
-----------------------------------------------|


-------------------------------------------------------------------|
-------------------------------------------------------------------|
-------------------------------------------------------------------|
-------------------------------------------------------------------|
----------**-8---8--8-*-10------------**-6------**-8---8--8-*-10---|
-3--------33-6---6--6-8-8-----3-------33-4------44-6---6--6-8-8----|
-1--------11-6---6--6-8-8-----1-------11-4------44-6---6--6-8-8----|


---------------------------------------------------|
---------------------------------------------------|
---------------------------------------------------|
---------------------------------------------------|
---------------------------------------------------|
-*-*-*-*-*-*-*-*-*-*-*-*-*-*-*-*-*-*-*-*-*-*-*-*---|
-1-1-1-1-1-1-1-1-1-1-1-1-1-1-1-1-1-1-1-1-1-1-1-1---|


-------------------------------------------------|
-------------------------------------------------|
-------------------------------------------------|
-------------------------------------------------|
*-*-*-*-*-*-*-*-*-*-*-*--------------------------|
6-6-6-6-6-6-6-6-6-6-6-6-*-*-*-*-*-*-*-*-*-*-*-*--|
------------------------1-1-1-1-1-1-1-1-1-1-1-1--|


------------------------------------------------|
------------------------------------------------|
------------------------------------------------|
------------------------------------------------|
------------------------*-*-*-*-*-*-*-*-*-*-*-*-|
*-*-*-*-*-*-*-*-*-*-*-*-4-4-4-4-4-4-4-4-4-4-4-4-|
1-1-1-1-1-1-1-1-1-1-1-1-------------------------|


-------------------------------------------------|
-------------------------------------------------|
-------------------------------------------------|
-------------------------------------------------|
*-*-*-*-*-*-*-*-*-*-*-*--------------------------|
6-6-6-6-6-6-6-6-6-6-6-6-*-*-*-*-*-*-*-*-*-*-*-*--|
------------------------1-1-1-1-1-1-1-1-1-1-1-1--|



---------------------------------------------------|
---------------------------------------------------|
---------------------------------------------------|
---------------------------------------------------|
---------------------------------------------------|
-*-*-*-*-*-*-*-*-*-*-*-*-*-*-*-*-*-*-*-*-*-*-*-*---|
-1-1-1-1-1-1-1-1-1-1-1-1-1-1-1-1-1-1-1-1-1-1-1-1---|


--------------------------------------------------|
--------------------------------------------------|
--------------------------------------------------|
--------------------------------------------------|
-*-*-*-*-*-*-*-*-*-*-*-*-*-*-*-*-*-*-*-*-*-*-*-*--|
-6-6-6-6-6-6-6-6-6-6-6-6-6-6-6-6-6-6-6-6-6-6-6-6--|
--------------------------------------------------|


--------------------------------------------------|
--------------------------------------------------|
--------------------------------------------------|
--------------------------------------------------|
-*-*-*-*-*-*-*-*-*-*-*-*-*-*-*-*-*-*-*-*-*-*-*-*--|
-4-4-4-4-4-4-4-4-4-4-4-4-4-4-4-4-4-4-4-4-4-4-4-4--|
--------------------------------------------------|


-------------------------------------------------|
-------------------------------------------------|
-------------------------------------------------|
-------------------------------------------------|
-*-*-*-*-*-*-*-*-*-*-*-*-*-*-*-*-*-*-*-*-*-*-*-*-|
-3-3-3-3-3-3-3-3-3-3-3-3-3-3-3-3-3-3-3-3-3-3-3-3-|
-------------------------------------------------|


--------------------------------------------------|
--------------------------------------------------|
--------------------------------------------------|
--------------------------------------------------|
-*-*-*-*-*-*-*-*-*-*-*-*-*-*-*-*-*-*-*-*-*-*-*-*--|
-4-4-4-4-4-4-4-4-4-4-4-4-4-4-4-4-4-4-4-4-4-4-4-4--|
--------------------------------------------------|



--------------------------------------------------|
--------------------------------------------------|
--------------------------------------------------|
--------------------------------------------------|
-*-*-*-*-*-*-*-*-*-*-*-*-*-*-*-*-*-*-*-*-*-*-*-*--|
-4-4-4-4-4-4-4-4-4-4-4-4-4-4-4-4-4-4-4-4-4-4-4-4--|
--------------------------------------------------|


-------------------------------------------------|
-------------------------------------------------|
-------------------------------------------------|
-------------------------------------------------|
-*-*-*-*-*-*-*-*-*-*-*-*-*-*-*-*-*-*-*-*-*-*-*-*-|
-3-3-3-3-3-3-3-3-3-3-3-3-3-3-3-3-3-3-3-3-3-3-3-3-|
-------------------------------------------------|


-------------------------------------------------|
-------------------------------------------------|
-------------------------------------------------|
-------------------------------------------------|
-*-*-*-*-*-*-*-*-*-*-*-*-*-*-*-*-*-*-*-*-*-*-*-*-|
-3-3-3-3-3-3-3-3-3-3-3-3-3-3-3-3-3-3-3-3-3-3-3-3-|
-------------------------------------------------|

previous riff repeats
in same pattern w/ 2x the notes (double-time)


------------------------------------------------------------------|
------------------------------------------------------------------|
------------------------------------------------------------------|
------------------------------------------------------------------|
----------**-8---8--8-*-10------------**-6------**-8---8--8-*-10--|
-3--------33-6---6--6-8-8-----3-------33-4------44-6---6--6-8-8---|
-1--------11-6---6--6-8-8-----1-------11-4------44-6---6--6-8-8---|



--------------------------------------------------|
--------------------------------------------------|
--------------------------------------------------|
--------------------------------------------------|
-------------------------8-***-8-***10-***10-***--|
-3-***-3-***-3-***-3-***-6-666-6-666-8-888-8-888--|
-1-111-1-111-1-111-1-111-6-666-6-666-8-888-8-888--|


-------------------------------------------------|
-------------------------------------------------|
-------------------------------------------------|
-------------------------------------------------|
-------------6-***-6-***-8-***-8-***10-*********-|
-3-***-3-***-4-444-4-444-6-666-6-666-8-888888888-|
-1-111-1-111-4-444-4-444-6-666-6-666-8-888888888-|



--------------------------------------------------|
--------------------------------------------------|
--------------------------------------------------|
--------------------------------------------------|
-------------------------8-***-8-***10-***10-***--|
-3-***-3-***-3-***-3-***-6-666-6-666-8-888-8-888--|
-1-111-1-111-1-111-1-111-6-666-6-666-8-888-8-888--|


-------------------------------------------------|
-------------------------------------------------|
-------------------------------------------------|
-------------------------------------------------|
-------------6-***-6-***-8-***-8-***10-*********-|
-3-***-3-***-4-444-4-444-6-666-6-666-8-888888888-|
-1-111-1-111-4-444-4-444-6-666-6-666-8-888888888-|



------1-0-------------1---0-----------_-----------|
--------------------------------/\---/ \----------|
*-*-4-------4---*-*-4----------3434-3-4-3---3-----|
2-2-------2-----2-2-----2----2------------5---5-4-|
--------------------------------------------------|
--------------------------------------------------|
--------------------------------------------------|


------1-0-------------1---0-----------_-----------|
--------------------------------/\---/ \----------|
*-*-4-------4---*-*-4----------3434-3-4-3---3-----|
2-2-------2-----2-2-----2----2------------5---5-4-|
--------------------------------------------------|
--------------------------------------------------|
--------------------------------------------------|


--------------------------------------|
--------------------------------------|
--------------------------------------|
--------------------------------------|
----8--7~~~---------------------------|
-0--------------*-*-*-*-7-------------|
------------6---6-9-8-6-5-|-----------|


Tap to rate this tab
 
# A B C D E F G H I J K L M N O P Q R S T U V W X Y Z