Song name
# A B C D E F G H I J K L M N O P Q R S T U V W X Y Z

Chuck Berry - Bye Bye Johnny tab

Bye Bye Johnny                 
Chuck Berry

Notes for the guitar intro



     Q    Q    E   E   E   E   
E||---------------------------|
B||---------------------------|
G||---------------------------|
D||---------------10--10--10--|
A||---------------------------|
E||---------------------------|


  E  E   E  E  E   E  E   E   
-----------------------------|
-----8-----------------------|
--9-----10--8--9-------------|
------------------10--7--10--|
-----------------------------|
-----------------------------|


   E   E   E   H        E    
---------------------------||
---------------------------||
---------------------------||
---------------------------||
---x--10--10--10-----------||
--------------10-----------||




Duration Legend
---------------
H - half
Q - quarter
E - 8th

Tablature Legend
----------------
x - dead note
Tap to rate this tab
 
# A B C D E F G H I J K L M N O P Q R S T U V W X Y Z