Song name
# A B C D E F G H I J K L M N O P Q R S T U V W X Y Z

Chuck Berry - Rock N Roll Music tab

Artist: Chuck Berry
Song: Rock and roll music
tabbed by: Jamking

intro:
[-----------]
[-----------]
[-----------]
[--8-8-8-8--]
[--6-6-6-6--]
[-----------]

main riff:
[------------------------------------------------------------------------------]
[------------------------------------------------------------------------------]
[-------------------8-8-10-8-8-8-10-8-------------------10-10-12-10-10-10-12-10]
[-8-8-10-8-8-8-10-8-6-6-6--6-6-6-6--6-8-8-10-8-8-8-10-8-8--8--8--8--8--8--8--8-]
[-6-6-6--6-6-6-6--6-------------------6-6-6--6-6-6-6--6------------------------]
[------------------------------------------------------------------------------]
main riff tag:
[---------------]
[---------------]
[---------------]
[-8-8-6-6-5-----]
[-----------8-6-]
[---------------]

bridge:
[-------------------------------]
[-------------------------------]
[----------------8-8-8-10-10-10-]
[-10-10-10-8-8-8-6-6-6-8--8--8--]
[-8--8--8--6-6-6----------------]
[-------------------------------]







Tap to rate this tab
# A B C D E F G H I J K L M N O P Q R S T U V W X Y Z