Song name
# A B C D E F G H I J K L M N O P Q R S T U V W X Y Z

Chuck Berry - 12 Bar Blues tab

e--------------------------------------------------------------------------|
b--------------------------------------------------------------------------|
g--------------------------------------------------------------------------|
d--------------------------------------------------------------------------|
a-2-2-4-2-2-2-4------------------------------------------------------------|
E-0-0-0-0-0-0-0------------------------------------------------------------|
[-repeat 8 times palm muted]

e--------------------------------------------------------------------------|
b--------------------------------------------------------------------------|
g--------------------------------------------------------------------------|
d-2-2-4-2-2-2-4------------------------------------------------------------|
a-0-0-0-0-0-0-0------------------------------------------------------------|
E--------------------------------------------------------------------------|
[repeat 4 times palm muted]

[ now repeat the first part but only 4 times instead of 8]

e--------------------------------------------------------------------------|
b--------------------------------------------------------------------------|
g--------------------------------------------------------------------------|
d-4-4-6-4-4-4-6-4-4-6-4-4-4-6----------------------------------------------|
a-2-2-2-2-2-2-2-2-2-2-2-2-2-2----------------------------------------------|
E--------------------------------------------------------------------------|
[do that as it is read]

e--------------------------------------------------------------------------|
b-2-2-4-2-2-2-4------------------------------------------------------------|
g-2-2-4-2-2-2-4------------------------------------------------------------|
d-2-2-4-2-2-2-4------------------------------------------------------------|
a--------------------------------------------------------------------------|
E--------------------------------------------------------------------------|
[do it as it is read][that is bassically an a chord to begin with]

e---------2-2-2-------------------------------------------------------------|
b---------0-0-0-------------------------------------------------------------|
g---------2-2-2-------------------------------------------------------------|
d---------1-1-1-------------------------------------------------------------|
a-0-1/2---2-2-2-------------------------------------------------------------|
E---------0-0-0-------------------------------------------------------------|
         [strum down them up then down][let it ring at the end then start the whole 
over again]


[heres a little part my cousin made up]

e----------------------------------------2-2-2------------------------------|
b----------------------------------------0-0-0------------------------------|
g---------------0-h2-h4-5-4-2------------2-2-2------------------------------|
d--------0-h2-h4-------------4-2---------1-1-1------------------------------|
a-0-h2-h4-----------------------4-2------2-2-2------------------------------|
E----------------------------------------0-0-0------------------------------|
[this part comes around the second time in place of the last part that you did the first 
again on the chord part in this little extra strum down the up then down]

have fun with this tab i no i did and thank my freind tj for teaching it to me
[tabbed by paul b.]


questions comments or complaints email me at [paul_rules101@yahoo.com] like i said enjoy!
Tap to rate this tab
# A B C D E F G H I J K L M N O P Q R S T U V W X Y Z