Song name
# A B C D E F G H I J K L M N O P Q R S T U V W X Y Z

Chuck Berry - Dont Let Them Still It Away tab

this is from the chuck berry movie HAIL HAIL ROCK N' ROLL i dont know if the songs name
is DONT LET THEM STILL IT AWAY but i think thats what its called
well here it goes

e-------8-8-8-8-8---------------------------------------------|
b-5s8s7-8-8-8-8-8--5s8s7--8-8-8-8-8---------------------------|
g-------------------------9-9-9-9-9---------------------------|
d-------------------------------------------------------------|
a-------------------------------------------------------------|
e-------------------------------------------------------------|

e-------8-8-8-7s8-8-8-7s8-8-8-8-8-----------------------------|
b-5s8s7-8-8-8-7s8-8-8-7s8-8-8-8-8-----9~~~--------------------|
g-------------------------------------9~~~--------------------|
d-------------------------------------------------------------|
a-------------------------------------------------------------|
e-------------------------------------------------------------|
Tap to rate this tab
# A B C D E F G H I J K L M N O P Q R S T U V W X Y Z