Song name
# A B C D E F G H I J K L M N O P Q R S T U V W X Y Z

Chuck Loeb - Above Us tab

#----------------------------------PLEASE NOTE--------------------------------#
#This file is the author's own work and represents their interpretation of the#
#song. You may only use this file for private study, scholarship, or research.#
#-----------------------------------------------------------------------------#
#-- File created with Instab - http://www.pconline.com/~smcarey/instab.html --#
#-----------------------------------------------------------------------------#

Author/Artist: Chuck Loeb
Title: Above Us
Album: The Moon, The Stars, and The Sun
Transcribed by: Doug Girard
Email: doug.girard@gmail.com

Common tuning.

-|-----3------------------|---------------------|-----------------------------|
-|-------6-3-----3-4------|---4-343-----3-------|-----------------------------|
-|---5-------3-5-----/5-3-|---------3-5---3-----|-----------------------------|
-|-5----------------------|-5---------------3-5-|-----------------------------|
-|------------------------|---------------------|-----------------------------|
-|------------------------|---------------------|-----------------------------|


-|-----3-----6-3--8---|-6-----3-----------------------|-|---------------------|
-|-------6-3--------6-|---4-3-------6-----4-----------|-|---------------------|
-|---5----------------|---------5-3-----------3/5-5/3-|-|---------------------|
-|-5------------------|---------------6-5---3---------|-|---------------------|
-|--------------------|-------------------------------|-|---------------------|
-|--------------------|-------------------------------|-|---------------------|


-|----------------|-----------------|---------------|-------------|-----------|
-|-4-3------------|-----------------|-4-3-----------|-------------|-----------|
-|---------/5-3---|-----------------|---------3-3---|-------------|-----------|
-|-----5-5--------|-6-5-----3-------|-----5-3-------|-5-3-----3---|-----------|
-|--------------6-|-----5-3---5---3-|-------------6-|-----3-----6-|-----------|
-|----------------|-------------6---|---------------|-------6-----|-----------|


-|----------------|-----------------|---------------|-------------|-----------|
-|-4-3------------|-----------------|-4-3-----------|-------------|-----------|
-|---------/5-3---|-----------------|---------5-5---|-3-3---------|-----------|
-|-----5-5--------|-6-5-----3-------|-----5-5-----3-|-------------|-----------|
-|--------------6-|-----5-3---5---3-|---------------|-----6-6-----|-----------|
-|----------------|-------------6---|---------------|-------------|-----------|


-|----------------|-----------------|---------------|-------------|-----------|
-|-4-3------------|-----------------|-4-3-----------|-------------|-----------|
-|---------/5-3---|-----------------|---------3-3---|-------------|-----------|
-|-----5-5--------|-6-5-----3-------|-----5-3-------|-5-5---------|-----------|
-|--------------6-|-----5-3---5---3-|-------------6-|-----3-3-----|-----------|
-|----------------|-------------6---|---------------|-------------|-----------|



http://www.chuckloeb.com/
Tap to rate this tab
 
# A B C D E F G H I J K L M N O P Q R S T U V W X Y Z