Song name
# A B C D E F G H I J K L M N O P Q R S T U V W X Y Z

Chuck Lorre - Two And A Half Men tab

-------------------------------------------------------------------------------
			     TWO AND A HALF MEN THEME - Chuck Lorre
-------------------------------------------------------------------------------


Tuning: Standard
Guitar 1: Alan Harper
Guitar 2: Jake Harper

Guitar 1:
e|--------------------------------|
B|--------------------------------|
G|--------------------------------|
D|--------------------------------|
A|--------------------------------|
E|--------------------------------|

e|--------------------------------|
B|--------------------------------|
G|--------------------------------|
D|-/10~~~~------------------------|
A|----------12-10-12-10-7---------|
E|--------------------------------|

e|--------------------------------|
B|--------------------------------|
G|--------------------------------|
D|--------------------------------|
A|-3~~-7~~-8~~-9~~-10~~-7~~-------|
E|--------------------------------|


e|--------------------------------|
B|--------------------------------|
G|--------------------------------|
D|--------------------------------|
A|-10----------10-10--------------|
E|----12-10-12-------12-10-12-----|

e|--------------------------------|
B|--------------------------------|
G|--------------------------------|
D|--------------------------------|
A|-10----------10-10--------------|
E|----12-10-12-------12-10-12-----|

e|-----------------------------------|
B|-----------------------------------|
G|-----------------------------------|
D|-----------------------------------|
A|-/14~------------------------------|
E|-----------------------------------|

Guitar 2:
e|--------------------------------|
B|--------------------------------|
G|--------------------------------|
D|--------------------------------|
A|--------------------------------|
E|--------------------------------|

e|--------------------------------|
B|--------------------------------|
G|--------------------------------|
D|--------------------------------|
A|--------------------------------|
E|--------------------------------|


e|--------------------------------|
B|-------8--11--10-8-6------------|
G|-5--9---------------------------|
D|--------------------------------|
A|--------------------------------|
E|--------------------------------|

e|----8---------------------------|
B|-10---8----------------------8--|
G|---------9-10-10-10~~~--12-9----|
D|--------------------------------|
A|--------------------------------|
E|--------------------------------|

e|--------------------------------|
B|-9b10~--------------------------|
G|--------------------------------|
D|--------------------------------|
A|--------------------------------|
E|--------------------------------|


************************************

| /   slide up
| \   slide down
| h   hammer-on
| p   pull-off
| ~   vibrato
| +   harmonic
| x   Mute note
| b   Bend
| pb  Pre-bend
| br  Bend release
| pbr Pre-bend release
| brb Bend release bend

************************************
Tap to rate this tab
# A B C D E F G H I J K L M N O P Q R S T U V W X Y Z