Song name
# A B C D E F G H I J K L M N O P Q R S T U V W X Y Z

Chuck Ragan - For Broken Ears tab

Artist: Chuck Ragan (of Hot Water Music)
Song: For Broken Ears
Tabbed By: thepoliticsofst


Intro:

---------------------------------------------------|
---------------------------------------------------|
-1---------4---------------------------------------|
-2---x24---4---x8----------------------------------|
-2---------2---------------------------------------|
---------------------------------------------------|

Verse:

---------------------------------------------------|
----------------------0----------------------------|
-1------4------6------2-----4----------------------|
-2-x16--4-x16--6-x16--2-x8--4-x8-------------------|
-2------2------4------0-----2----------------------|
---------------------------------------------------|

Chorus:

"down down down like a ball of flames..."

---------------------------------------------------|
---------------------------------------------------|
-9-----8-----------------------------8-------------|
-9-x8--9-----7-----11-----7-----11---7-----9-------|   x2
-7-----9-x8--7-x8--11-x8--7-x8--11---7-x8--9-x8----|
-------7-----5-----9------5-----9----5-----7-------|


That's it.
An Alternate way of playing it would be treating each chord like a barr chord.
Enjoy,
Chuck Ragan is a god, so it's really no wonder that this song rocks as much as it does.
Tap to rate this tab
 
# A B C D E F G H I J K L M N O P Q R S T U V W X Y Z