Song name
# A B C D E F G H I J K L M N O P Q R S T U V W X Y Z

Chumbawumba - Tubthumping tab

This song really only has one guitar part but ill include a guitar solo where the sax solo is.
~~~~~~~~~~~~~~~
R- Let it ring
~~~~~~~~~~~~~~~

  I Get Knocked Down!
e|-----------------------------------------------------|
B|-----------------------------------------------------|
G|--------------7-----------7-----------7--------------|
D|--------------7-----5-----7-----5-----7-----5-----7--|
A|--------------5-----5-----5-----5-----5-----5-----7--|
E|--------------------3-----------3-----------3-----5--|
                R     R     R     R     R     R     R

Sax Solo (Making it Guitar solo)

e|----------------------------17-|--------------------|
B|--15-------------15------------|--15-------15-15-15-|
G|-----14-14--11------14-14------|-----12-12----------|
D|-------------------------------|--------------------|
A|-------------------------------|--------------------|
E|-------------------------------|--------------------|x2
               R               R
After that solo ends like this

e|-----|
B|--17-|
G|-----|
D|-----|
A|-----|
E|-----|
     R

  That's it!             
       
Tap to rate this tab
# A B C D E F G H I J K L M N O P Q R S T U V W X Y Z