Song name
# A B C D E F G H I J K L M N O P Q R S T U V W X Y Z

Chunk No Captain Chunk - In Friends We Trust tab

-------------------------------------------------------------------------------
			     In Friends We Trust - Chunk! No Captain Chunk
-------------------------------------------------------------------------------
Tabbed by: the_extreme

Tuning: A# (Bb)
 INTRO
C |-----------------------------------------------------------------|
G#|-----------------------------------------------------------------|
D#|-----------------------------------------------------------------| Repeat as needed
A#|-------------------------------------------------7~~-------7-----|
F |--------------0------5-4-0-0h2h5----------0--------4~~-4h5-------|
A#|xxxxx--0-0h2h4---000-------------0-000h2h4---000-----------------|
                    **                **        **
Verse 1

C |---------------------------------------------------|
G#|---------------------------------------------------|
D#|---------------------------------------------------|
A#|-----------------------------------5---5---5---5---| (2x)
F |-0000--0-0-0-0-0--000-000-0-0-0----5---5---5---5---|
A#|-0000--0-0-0-0-0--000-000-0-0-0--005-555-555-555---|
    ****  * * * * *  *** *** * * *  **  **  **  **
                     |   ^   |
                    diff 2 time

(strumming pattern not tuned, just showing you the notes)
C |-------------------------------------------------------------|
G#|-------------------------------------------------------------|
D#|-------------------------------------------------------------|
A#|--77777-00000-555555555----7---7---7---7---0---0---0---0-5~~-|
F |--77777-00000-555555555----7---7---7---7---0---0---0---0-5~~-|
A#|--77777-00000-555555555--777-777-777-777-000-000-000-000-5~~-|
                            **  **  **  **  **  **  **  **
Chorus

C |---------------------------------------|
G#|---------------------------------------|
D#|----------------77------77-------------|
A#|-00000000-77-44-xx-444--xx-55555555----| (2x)
F |-00000000-55-22-55-444--55-55555555----|
A#|-00000000----------444-----55555555----|

end chorus
C |-------------------|
G#|-------------------|
D#|-------------------|
A#|--0~~~-0~~~-5~~~---|
F |--0~~~-0~~~-5~~~---|
A#|--0~~~-0~~~-5~~~---|

2 verse (same as before except this part)
(1:08)
C |--------------------------------------------|
G#|--------------------------------------------|
D#|--------------------------------------------|
A#|-0000-0-0-0-0-0-/55-9999-99---5---5---5---5-|
F |-0000-0-0-0-0-0-/55-9999-99---5---5---5---5-|
A#|-0000-0-0-0-0-0-/55-9999-99-555-555-555-555-|
    **** * * * * *     **** ** **  **  **  **
(fill 1)
C |-----------------------------------------------|
G#|-----------------------------------------------|
D#|-----------------------------------------------|
A#|----------0----------0--44-55-00-00000-0-0-0-0-|
F |----------0----------0--44-55-00-00000-0-0-0-0-|
A#|--444-555-0--444-555-0--44-55-00-00000-0-0-0-0-|
                           ** ** ** ***** * * * *
C |--------------|
G#|--------------|
D#|--------------|
A#|--44-55---7~~-|
F |--44-55---7~~-|
A#|--44-55-777~~-|
     ** ** **
CHORUS

BREAKDOWWWWN

C |-----------------------------------------------------------------|
G#|-----------------------------------------------------------------|
D#|-----------------------------------------------------------------|
A#|-----------------------------------------------------------------|
F |-----------------------------------------------------------------|
A#|0-000-000-000-000-000-000-000-000-9-999-999-999-555-555-555-555--|
     **  **  **  **  **  **  **  **    **  **  **  **  **  **  **
(those are tens not ones and zeroes)
C |-------------------------------------|
G#|-------------------------------------|
D#|-------------------------------------|
A#|-------------------------------------|
F |--9-999-999-999/7\9-999-999-9/1010---| (2x)
A#|-------------------------------------|
       **  **  **      **  **
Then repeat fill 1

Bridge

C |------------------------------------|
G#|------------------------------------|
D#|------------------------------------|
A#|--7777766444447774444477755555777---| (4x)
F |--5555544222225554444455555555555---|
A#|-----------------44444---55555------|
    ********************************
-Break-
(2:35)

C |-------------------------------------------------------------|
G#|-------------------------------------------------------------|
D#|-------------------------------------------------------------| (2x)
A#|-7~~-----7----------------------------------------7~~------7-|
F |---4-4h5--------------------------------------------4-4h5----|
A#|-----------0-000-000-0-000-000-000-0---000-000--0------------|
                **  **    **  **  **      **  **

Final Chorus
C |--------------------------------------------------------|
G#|--------------------------------------------------------|
D#|-55555555-44444444--------------------------------------|
A#|-xxxxxxxx-xxxxxxxx-99999999-55555555--0000000000000000--|
F |-77777777-66666666-99999999-55555555--0000000000000000--|
A#|-------------------99999999-55555555--0000000000000000--|

C |-----------------------------------------------------------------|
G#|-----------------------------------------------------------------|
D#|-----------------------------------------------------------------|
A#|-----------------------------------------------------------------|
F |-----------------------------------------------------------------|
A#|-000-000-000-000-000-000-000-000-999-999-999-999-555-555-555-555-|
    **  **  **  **  **  **  **  **  **  **  **  **  **  **  **  **
C |----------------------------------|
G#|----------------------------------|
D#|----------------------------------|
A#|----------------------------------|
F |-9-999-999-999/7\9-999-999-9/1010-|
A#|----------------------------------|
      **  **  **      **  **

OUTRO
A little different than the intro
C |----------------------------------------------------|
G#|----------------------------------------------------|
D#|----------------------------------------------------| (2x)
A#|----------------------------------------7~~------7--|
F |---------0----5-4-0-0h2h5-2-------2-------4-4h5-----|
A#|-000h2h4---000-------------000h2h4--555-------------|
    **        **              **       **
TAB LEGEND
h = hammer on
~~ = let note right
* = palm mute
x = mute
\ (/) = slide

END

Hope you guys enjoy it! :D
Tap to rate this tab
 
# A B C D E F G H I J K L M N O P Q R S T U V W X Y Z