Song name
# A B C D E F G H I J K L M N O P Q R S T U V W X Y Z

Chunk No Captain Chunk - Restart tab

-----------------------------------------------------------------------------
        Restart (opening two riffs / by ear) - CHUNK! NO, CAPTAIN CHUNK!
-----------------------------------------------------------------------------
Tabbed by: Cupid Reagan
E-mail:  cupidreagan@live.com
------------------------------
I'm like many, having to learn this song by ear, so I will either transpose
more as I get time, or I'll gladly take suggestions to revise this further.
------------------------------

Tuning: Drob A# (aka Drob Bb): 6=A#  5=F  4=A#  3=D#  2=G#  1=C

1|---------------------------------------|----------------------------------|
2|---------------------------------------|----------------------------------|
3|---------------------------------------|----------------------------------|
4|-------------7---7---------------------|-----------7----------------------|
5|---------9-------------7---------------|--------9----9--------------------|
6|--0-0--8-------9----6------5-0-0-0-0-0-|--0-0--8--------7--0-5-5-0-5-5-5--|
  pm---                          pm  pm   pm---                 pm pm  pm


1|--------------------------------------------------------------------------|
2|--------------------------------------------------------------------------|
3|--------------------------------------------------------------------------|
4|--12/0--0------------------------12-0--0----------------------------------|
5|--12/0--0------------------------12/0--0----------------------------------|
6|--12/0--0---0-0-0-0---0-0-0-0----12/0--0---0-0-0-0---0-4-0-4-0-5----------|
          #     pm---     pm---          #     pm---      p   p 


************************************
| /   slide up
| h   hammer-on
| p   pull-off
| #   Hard downstroke - full stop
************************************
Tap to rate this tab
 
# A B C D E F G H I J K L M N O P Q R S T U V W X Y Z