Guitaretab - guitar tabs
Song name
# A B C D E F G H I J K L M N O P Q R S T U V W X Y Z

Church - Prayer Of Saint Francis Of Assisi tab

2nd tab ko poh toh...ahehe

di ko poh alam ung artist nito, kya church n lng nilagay ko since it is a prayer..



intro:

 e|-0---0-0-2-3-----------------------------------------|
 B|--------------3---0-----0h1-0----0--1-0------------0-|
 G|---0------------0---0----------2--------2--0--0------|
 D|----------------------0-------------0--------0--0----|
 A|-3-----------------------------0---------------------|
 E|--------------3----------------------------3-------3-|

Verses:

 e|--------------------------------------------------------------------|
 B|-0---0---0---1-3--0-------0--------0---0---0---1-3------3-------3---|
 G|---0---0---0----------0-------0------0---0---0------2-------2-----2-|
 D|--------------------0---0---0---0-------------------0-0---0---0-----|
 A|--------------------------------------------------------------------|
 E|-3----------------3----------------3--------------------------------|


 e|---------------0----------------------------------------|
 B|-1---1---1---3----1---1---1--1---1----0-------------0---|
 G|---0---0---0--------0---0------0---0----2--0---0------0-|
 D|--------------------------------------0------0---0------|
 A|-3----------------3----------3--------------------------|
 E|-------------------------------------------3--------3---|


chorus:
[ Tab from: http://www.guitaretab.com/c/church/117551.html ]
 e|-0---0----0----2-3--------------------------------0---------------|
 B|---1---1----1-------3---3------3----1---1---1-1-3----0----1---3---|
 G|----------------------0------0---0----2---2------------0----0---0-|
 D|------------------------------------------------------------------|
 A|-3--------3-------------------------0---------------------0---2---|
 E|--------------------3----3-3-------------------------3------------|


 e|-0---0---0---2-3-----------------------------0-0-----------0----2-|
 B|---1---1---1------3---3-0-----0h1-0--------------3-2--3-----------|
 G|--------------------0-----0----------2---2--------------0----0----|
 D|----------------------------0----------2---2----------0----2----4-|
 A|-3-----------------------------------0-------0--------------------|
 E|------------------3-----------------------------------------------|


Verse I.

    Make me a channel of your peace,
    Where there is hatred let me bring your love,
    Where there is injury your pardon Lord,
    And where there's doubt true faith in you.

Verse II.

    Make me a channel of your peace,
    Where there's despair in life, let me bring hope,
    Where there is darkness, only light,
    And where there's sadness, ever joy.

Chorus:

    O Master grant that I may never seek,
    So much to be consoled as to console,
    To be understood as to understand,
    To be loved as to love with all my soul.

Verse III.

    Make me a channel of your peace,
    It is in pardoning that we are pardoned,
    In giving to all men that we receive
    And in dying that we are born to eternal life




+yn n poh..!!!! kapa lng poh toh...kya di ko masasabing perpekto toh..pero ayos toh..!!!

kung may kulang...e-mail me at marjselle_08@yahoo.com
o'add dn s friendster...same account..

hi to...
-nutririon factz..!!!!
-neophytez!!!

-[resty (rez), Ysrael (ysLy), Artem (Tem), Jemerson (Jem, MorTz)]

-CE I-1

-pOrwAn..

Related for Prayer Of Saint Francis Of Assisi tab