Song name
# A B C D E F G H I J K L M N O P Q R S T U V W X Y Z

Church - Lost tab

Lost by The Church
tabbed by Greg D
7/13/06

E----------------------------------------------------------------------|
B---------------------0--------------------------------0---------------|
G--------------5---------5------5--------------5----------5--------5---|
D----------5------5----------5------------5--------5-----------5-------|
A------3------------------------------3--------------------------------|
D----------------------------------------------------------------------|

E----------------------------------------------------------------------|
B--------------------0--------------------------------0----------------|
G-------------5----------5------5-------------5-----------5--------5---|
D---------5-------5----------5------------5-------5------------5-------|
A-----0-------------------------------0--------------------------------|
D----------------------------------------------------------------------|

E----------------------------------------------------------------------|
B---------------------0--------------------------------0---------------|
G--------------5---------5-------5-------------5----------5-------5----|
D----------5------5----------5------------5-------5------------5-------|
A----------------------------------------------------------------------|
D-----5------------------------------5---------------------------------|

E----------------------------------------------------------------------|
B--------------------0---------------------------------0---------------|
G-------------5----------5------5-------------5------------5------5----|
D--------5-------5----------5------------5---------5-----------5-------|
A----------------------------------------------------------------------|
D----3-------------------------------3---------------------------------|


This was all i could figure out. i know in the chorus where he's sing "Lost Lost Lost" 
and over again The Drop D string is 5th fret and other stuff but it might just be 5th 
cuz the singer is a bassist
Tap to rate this tab
# A B C D E F G H I J K L M N O P Q R S T U V W X Y Z