Song name
# A B C D E F G H I J K L M N O P Q R S T U V W X Y Z

Church - Louisiana tab

                                   LOUISIANA
                            As recorded by The Church
                      (From the 1998 Album HOLOGRAM OF BAL)

Transcribed by Corey Hunter @ www.coreyhunter.com

Intro/Verse Riff  * This represents the general feel and idea for the
              main riff. There's many variations, so listen out
              for em'. This riff plays throughout the Verses.
               
  Q=68
 4/4
  Gtr I
   E  E  E  S  S S S  E  S S  S S   E E E S S S S E +S  S S S
|--8--8--8--8--8---8--8--8-8--8-0-|-5-------------------8-8-8-| 
|--8--8--8--8--8---8--8--8-8--8-0-|-5-8-5-5-8---8-5-(5)-8-8-8-|
|--0--0--0--0--0------0--0-0--0-0-|-5-5-5-5-5---5-5-(5)-0-0-0-|
|-10-10-10-10-10-----10-10---10---|-7-7-7-7-7---7-7-(7)-------|
|---------------------------------|---------------------------|
|---------------------------------|---------------------------|


[Verse]

   C     F        Am             C     F        Am
|  /  /  /  /  |  /  /  /  /  |  /  /  /  /  |  /  /  /  /  | x 2


[Pre Chorus]


   Bb    C        Bb    C        Bb    C        Bb    C   
|  /  /  /  /  |  /  /  /  /  |  /  /  /  /  |  /  /  /  /  |


[Chorus]

   Bb    Am       C              Bb    Am       C
|  /  /  /  /  |  /  /  /  /  |  /  /  /  /  |  /  /  /  /  |

   Bb    Am       C              Dm             G    
|  /  /  /  /  |  /  /  /  /  |  /  /  /  /  |  /  /  /  /  |

   Dm             G  F  Am G/B 
|  /  /  /  /  |  /  /  /  /  |   * Return to Verse


-----------------------------------------------------------------------------
-----------------------------------------------------------------------------


Tap to rate this tab
# A B C D E F G H I J K L M N O P Q R S T U V W X Y Z