Song name
# A B C D E F G H I J K L M N O P Q R S T U V W X Y Z

Church - Almost With You tab

Solo on Nylon String Guitar at 2:39  Classic!

e|---------------------------------------------------------------------|
B|---------------------------------------------------------------------|
G|-------------------------------------------------0-------------------|
D|-0-0--0-----------------------------------0--2-4---4-0--0-0----------|
A|--------3-2-3-2----0-2--------0-1-3--3-2--------------------3-2-3-2--|
E|----------------3------3--1-3------------3-------------------------3-|


e|------------------------------------------------------------------|
B|------------------------------------------------------------------|
G|--------------------------------7-----------------------------7---|
D|----------0-2-4-5---/9-9-9--7-5---10-10-9---------7-9-10-9--------|
A|----0-2-3---------------------------------10--8-10---------10-----|
E|-3-3--------------------------------------------------------------|


e|--7-8-8-7---7-8-7--------5-6-5-----------------12--10-8-7-5-3-2-0--|
B|--7---------8-----10-8---6-----6-6-5--3-3------------------------3-|
G|-R7--------R9-----------R5-------------------12--12----------------|
D|-------------------------------------------------------------------|
A|-------------------------------------------------------------------|
E|-------------------------------------------------------------------|

(R is rake)
(thanks to Paul K for corrections)
Tap to rate this tab
# A B C D E F G H I J K L M N O P Q R S T U V W X Y Z