Song name
# A B C D E F G H I J K L M N O P Q R S T U V W X Y Z

Church - Under The Milky Way chords

Highlighted       Show chord diagrams
The Church  Under The Milky Way
I have given 2 options for the 2nd verse chord (Am7). I play the first as I 
believe it is what The Church play, but the 2nd option is easier.

    Am   Am7  Fmaj7   G     C
e|--0----3-3----0-----3-----0
B|--1----3-1----1-----3-----1
G|--2----2-2----2-----0-----0
D|--2----2-2----3-----0-----2
A|--0----0-0----0-----2-----3
E|--x----x-x----x-----3-----3


INTRO Am Am7 Fmaj7 G
VERSE
Am                    Am7                Fmaj7      G
  Sometimes when this place gets kind of empty
Am               Am7                   Fmaj7      G
  Sound of their breath fades with the light
Am         Am7      Fmaj7         G
  I think about the loveless fascination
Am          Am7         Fmaj7      G
  Under the Milky Way tonight

Am          Am7             Fmaj7        G
  Lower the curtain down in Memphis
Am          Am7              Fmaj7      G
  Lower the curtain down all right
Am         Am7      Fmaj7         G
  I got no time for private consultation
Am          Am7         Fmaj7      G
  Under the Milky Way tonight

CHORUS
G                          Fmaj7
 Wish I knew what you were looking for
G                                Fmaj7
 Might have known what you would find


VERSE
Am          Am7               Fmaj7       G
   And it's something quite peculiar
Am           Am7            Fmaj7      G
   Something shimmering and white
Am              Am7    Fmaj7           G
   It leads you here despite your destination
Am           Am7         Fmaj7      G
   Under the Milky Way tonight

CHORUS     
G                          Fmaj7
 Wish I knew what you were looking for
G                                Fmaj7
 Might have known what you would find
G                          Fmaj7
 Wish I knew what you were looking for
G                                Fmaj7
 Might have known what you would find

BRIDGE C G Am Am x 4


VERSE
You can play this run instead of the Chords (same as outro)
  (  Am   )(   Am7   )( Fmaj7 )(    G     )
e|-0-0-0-0--0-0-0-000--0-0-0-0--0-0-0-0000-
B|-1-1-0-1--3-1-0-010--1-1-0-1--3-3-3-3333-
G|-2-2-2-2--2-2-2-222--2-2-2-2--4-4-4-4444-
D|-2-2-2-2--2-2-2-222--3-3-3-3--5-5-5-5555-
A|-0-0-0-0--0-0-0-000--0-0-0-0--0-0-0-0000-
E|-x-x-x-x--x-x-x-xxx--x-x-x-x--x-x-x-xxxx-


Am         Am7               Fmaj7       G
  And it's something quite peculiar
Am                 Am7            Fmaj7      G
  Something that's shimmering and white
Am          Am7    Fmaj7           G
  Leads you here despite your destination
Am          Am7         Fmaj7      G
  Under the Milky Way tonight


CHORUS
G                          Fmaj7
 Wish I knew what you were looking for
G                                Fmaj7
 Might have known what you would find
G                          Fmaj7
 Wish I knew what you were looking for
G                                Fmaj7
 Might have known what you would find


OUTRO (For Acoustic)
  (  Am   )(   Am7   )( Fmaj7 )(    G     )
e|-0-0-0-0--0-0-0-000--0-0-0-0--0-0-0-0000-
B|-1-1-0-1--3-1-0-010--1-1-0-1--3-3-3-3333-
G|-2-2-2-2--2-2-2-222--2-2-2-2--4-4-4-4444-
D|-2-2-2-2--2-2-2-222--3-3-3-3--5-5-5-5555-
A|-0-0-0-0--0-0-0-000--0-0-0-0--0-0-0-0000-
E|-x-x-x-x--x-x-x-xxx--x-x-x-x--x-x-x-xxxx-

Tabbed by Les Paul Alpine Supreme
Tap to rate this tab
# A B C D E F G H I J K L M N O P Q R S T U V W X Y Z