Song name
# A B C D E F G H I J K L M N O P Q R S T U V W X Y Z

Chvrches - The Mother We Share tab

Standard Tuning

Intro
Synth/Vocals
e------------------------------------------------------------------------|
b-6--999-6----6-99---6--999-6-9---6----6--999-6----6-99--6-999--6----9-6-|
g-----------8-------------------8---6------------8-----------------8-----|
d------------------------------------------------------------------------|
a------------------------------------------------------------------------|
e------------------------------------------------------------------------|

Rhythm (Can either strum a pattern or let it ring out)
e-(4~)---1~----2~----2~----|
b--6~----1~----2~----2~----|
g--6~----1~----3~----3~----|
d--6~----3~----4~----4~----|
a--4~----3~----4~----4~----|
e--------1~----2~----2~----|

Verse
Rhythm
e-6---6-6---4--4-4-6---2--2-2--1/2--2-2-4-6--6-6--6/4-4-4--4--4--2--2-2--1/2-2-|
b-6---6-6---4--4-4-6---2--2-2--1/2--2-2-4-6--6-6--6/4-4-4--4--4--2--2-2--1/2-2-|
g-6---6-6---5--5-5-6---3--3-3--1/3--3-3-5-6--6-6--6/5-5-5--5--5--3--3-3--1/3-3-|
d-8---8-8---6--6-6-8---4--4-4--3/4--4-4-6-8--8-8--8/6-6-6--6--6--4--4-4--3/4-4-|
a-8---8-8---6--6-6-8---4--4-4--3/4--4-4-6-8--8-8--8/6-6-6--6--6--4--4-4--3/4-4-|
e-6---6-6---4--4-4-6---2--2-2--1/2--2-2-4-6--6-6--6/4-4-4--4--4--2--2-2--1/2-2-|

Chorus
e-(4~)---1~----2~----2~----|
b--6~----1~----2~----2~----|
g--6~----1~----3~----3~----|
d--6~----3~----4~----4~----|
a--4~----3~----4~----4~----|
e--------1~----2~----2~----|

Synth Part in background.  Kinda hard to hear it.
e-----------------    -------------|
b-----------------    -------------|
g---4---5---4-----    ---5-----4---|
d-5---5---5---5--- 3x -5---5-----5-|
a-----------------    -------------|
e-----------------    -------------|

Verse 2
Rhythm Same

Lead (Time it out)
e----------131313---------------------------131313--------------|
b-14141414---------------------141414141414---------------------|
g-----------------131313131313---------------------131313131313-|
d---------------------------------------------------------------|
a---------------------------------------------------------------|
e---------------------------------------------------------------|

e--------------131313---------------------------131313131313-16161616-|
b-141414141414---------------------141414141414-----------------------|
g---------------------131313131313------------------------------------|
d---------------------------------------------------------------------|
a---------------------------------------------------------------------|
e---------------------------------------------------------------------|

Chorus

Bridge
Synth/Vocals
e----------------6-------------------------------|
b-6-999~---6-999---------6-999~---6-999-6--------|
g-------------------8--6-------------------8--6--|
d------------------------------------------------|
a------------------------------------------------|
e------------------------------------------------|

Rhythm
e-6~----4~----2~--------|
b-6~----4~----2~--------|
g-6~----5~----3~--------|
d-8~----6~----4~--------|
a-8~----6~----4~--------|
e-6~----4~----2~--------|
Tap to rate this tab
 
# A B C D E F G H I J K L M N O P Q R S T U V W X Y Z