Song name
# A B C D E F G H I J K L M N O P Q R S T U V W X Y Z

Ciaj Sia Lis - Ntuj Es Ntuj Es tab

Chords: G, D, Em, Am

Intro:
       G      D      G        G        Em        D       G
e|-----3---------3-------3--------3--------3---------3--------3--|
B|-----3---------3-------3--------3--------3---------3--------3--|
G|---0---0------2------0---0----0---0----0---0-----2--------2----|
D|------------0----------------------------------0--------0------|
A|---------------------------------------------------------------|
E|-3-----------------3--------3--------3-----------------3-------|

And Then The Verse: Use the same tabs as above.
G, D, G, G, Em, D, G, G, G, Em, D, D, Em, Em, G, G.
Chorus:
D, D, Am, Am, G, G, G, G, D, D, Am, Am, G, G.

Tabs For  Am
e|-----3-----------------------------------|
B|-----3-----------------------------------|
G|---2-------------------------------------|
D|-----------------------------------------|
A|-0---------------------------------------|
E|-----------------------------------------|

That is about and Good Luck.
Tap to rate this tab
# A B C D E F G H I J K L M N O P Q R S T U V W X Y Z