Song name
# A B C D E F G H I J K L M N O P Q R S T U V W X Y Z

Cibelle - Esplendor tab

Hi everyone
I want to share the tabs for ESPLENDOR by CIBELLE. I think this is correct, but it may 
be a quite diferent from original chords.
This is a list of chords they play.
I recommend listening to the song and trying to get the rythm of bossa and the changes 
between chords.
Good luck!

Chords in Verse:
E|------------------------------------------------------------------------------3---------|
B|----3---------7----8----8-----------7----6----5----8----3----7/8----6h8-------2----5----|
G|----4---------6----7----7-----------7----6----5----7----2----6/7----8----7----3----5----|
D|----2---------5----6----6-----------5----4----3----5----2----6/7----7----7----2----4----|
A|----------------------------------5/7----6----5----7----------------8----8---------5----|
E|----3---------6----7----7-------------------------------3----7/8---------6--------------|

Chords in Chorus:

E|---------------------------------------4----1----3----3--------------------6----8----|
B|----8----6----4----3----4----6----3----3----3----3----2----10----6----4----7----7----|
G|----7----7----5----3----3----5----3-------------------3----9-----5----3----5----5----|
D|----5-------------------1----3------------------------2----7-----3----1--------------|
A|----6-------------------3----5--------------1--------------8-----5----3----6----6----|
E|---------6----4----3--------------3----1---------3-----------------------------------|



Lyrics

Verse:

Caía uma chuva fina
Em forma de confissão
E eu, solidão
Sou como a folha de outono
Que sem dono
Navegando chega aqui

Pra lhe dizer que o abandono
Já vai chegando ao fim
E eu, solidão
Só falta agora o teu sorriso
Um aviso
Que a luz do sol está por vir

Chorus:

E se você me vir vagando
Sem razão
Não vá pensar que o desengano
Mora no meu coração
Há muito tempo já se foi
A estação que vem depois
Descortina todo o esplendor

Verse:

Caía uma chuva fina
Em forma de confissão
E eu, solidão
Sou como a folha de outono
Que sem dono
Navegando chega aqui

Pra lhe dizer que o abandono
Já vai chegando ao fim
E eu, solidão
Só falta agora o teu sorriso
Um aviso
Que a luz do sol está por vir

Chorus:

E se você me vir vagando
Sem razão
Não vá pensar que o desengano
Mora no meu coração
Há muito tempo já se foi
A estação que vem depois
Descortina todo o esplendor

Caía uma chuva fina
Tap to rate this tab
# A B C D E F G H I J K L M N O P Q R S T U V W X Y Z