Song name
# A B C D E F G H I J K L M N O P Q R S T U V W X Y Z

Cielo Razzo - Esquina tab

E|------------------------------------------------------3------7-|
B|--6-6--5-6-6--8-8----10------10--8--6-6-5--------3-------------|
G|--7-7--6-7-7--9-9/10----9/10-----9--7-7-5---3/4-----4----4/7---|
D|---------------------------------------------------------------|
A|---------------------------------------------------------------|
E|---------------------------------------------------------------|

E|------------------------8------8-7--5-5---3---------8--7-----|
B|------6--5-6-6--8-8/10----8/10---8--6-6---5---------------8--|
G|--6/7----6-7-7--9-10----------------------------7/9----------|
D|-------------------------------------------------------------|
A|-------------------------------------------------------------|
E|-------------------------------------------------------------|

Dm
Ya marco y se clavan las dos
  C
agujas que mienten
   G
provando mi suerte
Dm
y al dudar
saltar o quedar
     C
los miro del banco
       G
y se esfuma mi arco.
      F
Otra vez atras
       Am
como desterrar
         C
todo el miedo, lo ingrato
                        E
la burla que veo en tu risa
cuando te alejas.
Dm
Hoy volví a estar en tus pies,
  C
tomando el veneno,
   G
lamiendo tu suelo.
   Dm
Vuelvo a dar todo sin pelear,
     C
me pierdo en tu rumbo,
   G
no me queda orgullo.
      f
Otra vez atras
       Am
como desterrar
         C
todo el miedo, lo ingrato
                        E
la burla que veo en tu risa
cuando te alejas.
     G
Me llevas a andar
      Am
y espuelas clavas
       C
la dulzura que nace en tu boca
             E
termina en brasa
y comienza a quemar.
  C
Esquina de estrellas
escupen condenas
 B          F
como viene va
 C
te vas a dar cuenta
que nadie te espera
       B      F
cuando te alejas.


Logan_RosarioCentral
Tap to rate this tab
 
# A B C D E F G H I J K L M N O P Q R S T U V W X Y Z