Song name
# A B C D E F G H I J K L M N O P Q R S T U V W X Y Z

Cielo Razzo - Estrella tab

over riff:


-----------12-13--12-13-12--------------|
---------10--------------------11-11-11-|
-10----10-------------------10----------|
----12----------------------------------|
----------------------------------------|
----------------------------------------|


-----------14-15--14-15-14--------------|
---------12-----------------12--12/15---|
-12----12-------------------------------|
----14----------------------------------|
----------------------------------------|
----------------------------------------|

----------------------------------------|
--13/(15)\13/(15)\13--11--11------------|
------------------------12--------------|
----------------------------------------|
----------------------------------------|
----------------------------------------|

----------------------------------------|
--14/(16)(16)(16)(16)(16)---------------|
----------------------------------------|
----------------------------------------|
----------------------------------------|
----------------------------------------|

suggestions, please: luchiviola@hotmail.com
Tap to rate this tab
 
# A B C D E F G H I J K L M N O P Q R S T U V W X Y Z