Song name
# A B C D E F G H I J K L M N O P Q R S T U V W X Y Z

Cienfue - Bien Cuidao tab

Artista: Cienfue
Album: El Disco Es Cultura (2005)
Cancion: Bien Cuidao
Tab by: shevchukova [shevchukova@hotmail.com]


Este es el riff que va en toda la cancion

e|--5--7--5--7--7-8--4-5--------------|
B|--5--5--6--6--8-8--5-5--------------|
G|--5--5--5--5--9-9--4-4--------------|
D|------------------------------------|
A|------------------------------------|
E|------------------------------------|

El punteado que se escucha en algunas
partes de la cancion, en algunos momentos
incorporan un efecto tremolo...

e|--5-5-----7---5-5-----7----------|
B|------5-5---5-----5-5---5--------|
G|---------------------------------|
D|---------------------------------|
A|---------------------------------|
E|---------------------------------|

...continúa...

--7-7-----8----4-4-----5------------|
------8-8---8------5-5---5----------|
------------------------------------|
------------------------------------|
------------------------------------|
------------------------------------|

[Letra]

Maria...
Maria...
cuidate cuidate pero cuidate bien
por si las moscas,
cuidate y no preguntes por que
por si las moscas,
cuidada cuidadita te quiero tener
por si las moscas,
cuidada cuidadita te quiero por siempre
por si las moscas,

ta bien cuidao
ta bien cuidao
si te descuidas...ave Maria (x4)

Maria...
Maria...
cuidame cuidame pero cuidame bien
por si las moscas,
cuidame cuidame y no preguntes porque
por si las moscas,
cuidadito conmigo porque vengo fuerte
por si las moscas,
cuidadito conmigo que soy la muerte

ta bien cuidao
ta bien cuidao
si te descuidas...ave Maria (x4)

Maria...
Maria...
Juana y Maria son bienvenidas (x4)

ta bien cuidao
ta bien cuidao
si te descuidas...ave Maria (x4)
Tap to rate this tab
 
# A B C D E F G H I J K L M N O P Q R S T U V W X Y Z