Song name
# A B C D E F G H I J K L M N O P Q R S T U V W X Y Z

Cigar - Wright And Wrong tab

Help us improve GuitareTab! Take a short survey!
|------------------------------------------------------------------------------------------------|
|                                                                    Cigar  -  Wright and Rong

                                    |
|------------------------------------------------------------------------------------------------|
Transcribed by: Lucas Lazarotto
Email: lukauhc@yahoo.com.br

* Play each note 8 times
# Play each note 4 times

Intro (4x)
E---------------------------------------------------------------------------------|
B---------------------------------------------------------------------------------|
G---8-88-8-88-8-88-8-88-----------------------------------------------------------|
D---------------------------------------------------------------------------------|
A---6-66-6-66-6-66-6-66-----------------------------------------------------------|
E---------------------------------------------------------------------------------|
  (2x)
E---------------------------------------------------------------------------------|
B---------------------------------------------------------------------------------|
G---------------------------------8-----------------------------------------------|
D---------------------------------8-----------------------------------------------|
A-1010-8--1010--8-1010--8-1010--8-6-----------------------------------------------|
E--8-8-6---8-8--6--8-8--6--8-8--6-------------------------------------------------|

 (00:24)
E|----------------------------------------------------------------------------------|
B|----------------------------------------------------------------------------------|
G|-12121212-15151515----------------------------8---------------------------8-------|
D|----------------------------------------------8---------------------------8--6----|
A|-10101010-13131313---1010-8-1010-8-1010-8h10--6--1010-8-1010-8-1010-8h10--6--6----|
E|----------------------8-8-6--8-8-6--8-8-6h8-------8-8-6--8-8-6--8-8-6h8------4----|

 (00:32)       (1x)                                                (2x)
E---------------|------------------------|------0-----2---------|
B---------------|------------------------|------0-----2--(1x)---|
G------4-----6--|---------4---6----------|------1-----3--4------|
D---6--4--4--6--|-6-6666--4-4-6--6-6666--|--2------4-----4------|Repeat
A---6--2--4--4--|-6-6666--2-4-4--6-6666--|--2------4-----2------|
E---4-----2-----|-4-4444----2----4-4444--|--0------2------------|


   (00:57)
E----------------------------------------------------------------|
B----------------------------------------------------------------|
G----------------4--4---4-4--------------------------------------|
D--6-6----6-6----4--4---4-4----2-2----2-2----4-4----4-4----------|
A--6-6----6-6----2--2---2-2----2-2----2-2----4-4----4-4-------4--|
E--4-4----4-4------------------0-0----0-0----2-2----2-2----2-----|

 (01:05)                      (2x)
E---------------------|
B------*--------------|
G--*---4--*--*--------|
D--6--4--2--4---------|
A--6--2--2--4---------|
E--4-----0--2---------|

 (01:14)
E------------------------------------|
B--*---*-----------------------------|
G--8--11-9-9-8-8-6-6-8-8-6-6-6-6-----|
D------------------------------------|
A--6--9--7-7-6-6-4-4-6-6-4-4-4-4-----|
E------------------------------------|

End Intro

>Verse                       (01:22)
   Just Pretend You're wrong...                                 (2x)
E------------------------------------------|
B----------------------*-------------------|
G----------------*-----4-----*-----*-------|
D----------------6-----4-----2-----4-------|
A----------------6-----2-----2-----4-------|
E----------------4-----------0-----2-------|

>Chorus
 Just Pretend You're wrong...                        (3x)             
E-----------------------------------|--------------------------------|
B-------------------------------#---|-----------------------9-9------|
G----------------#----#----#----4---|--#----#----*----------8-8------|
D----------------6----4----2----4---|--6----4----2----6-6---6-6------|
A----------------6----4----2----2---|--6----4----2----6-4------------|
E----------------4----2----0--------|--4----2----0---4-4-------------|

>Verse
    Second part of this verse is Palm-muting

>Chorus

>Interlude
E-4------------|--------------------------------|
B-4------------|------#-------------------------|
G-5------------|---*--4---4--6--8--6---*----*---|
D---(feedback)-|--6---4----------------2----4---|
A--------------|--6---2---2--4--6--4---2----4---|
E--------------|--4--------------------0----2---|

>Chorus
         Same as befere except the final part (1x)
E----|-----------------------------------------------------|
B----|-----------------------------------------------------|
G----|--#----#----*-------------------------------4--4-----|
D----|--6----4----2----6-6----------6-6-----------4--4-----|
A----|--6----4----2----6-6------2---6-6-----2-----2--2-----|
E----|--4----2----0----4-4--2-4--4--4-4-2-4--4-2-----------|

I'm Rright Or Wrong?
The end.
Any comments or suggestions email me.
Transcribed by: Lucas Lazarotto
Email: lukauhc@yahoo.com.br
Related for Wright And Wrong tab