Song name
# A B C D E F G H I J K L M N O P Q R S T U V W X Y Z

Cilekes - Ardima Hic Bakmadan tab

Help us improve GuitareTab! Take a short survey!
İntro

With D#m  Bb  D#m  Bb chords you will play the solo below.

E-11----14--13----16--11----14--13------|
B----11--------11--------11-------------|
G---------------------------------------|
D---------------------------------------|
A---------------------------------------|
E---------------------------------------|


During the verses the same guitar keeps playing the solo.
E-11----14--13----16--11----14--13----16--|
B----11--------11--------11--------11-----|
G-----------------------------------------|
D-----------------------------------------|
A-----------------------------------------|
E-----------------------------------------|

D#m Bb D#m Bb
Denedim olmadi..Hevesim kalmadi..
D#m Bb G#m Bb
Aradigim bir care, bi umit kalmadi
D#m Bb D#m Bb
Kendimi yormadim,kimseye soramadim
D#m Bb G#m Bb
Dermanim kalmadi ah..Sevenim hic olmadi..

D#m Bb D#m Bb
Duslerim baska seyler,Aglarim hic bikmadan
D#m Bb G#m Bb-(B-Bb-B-Bb-B-Bb-G#m-Bb)
Giderim cok uzaklara,ardima hic bakmadan... Ohooooo...

D#m Bb D#m Bb
Kendimi yormadim,kimseye soramadim
D#m Bb G#m Bb
Dermanim kalmadi,Sevenim hic olmadi

D#m Bb D#m Bb
Duslerim başka seyler,Aglarim hic bikmadan
D#m Bb G#m Bb-(B-Bb-B-Bb-B-Bb-G#m-Bb)
Giderim cok uzaklara,ardima hic bakmadan... Ohooooo...

thats the whole song
Related for Ardima Hic Bakmadan tab