Song name
# A B C D E F G H I J K L M N O P Q R S T U V W X Y Z

Cinder Road - Sleeping With The Enemy tab

Cinder Road - Sleeping With The Enemy

INTRO:
e |------------------------------------------------------------------|
B |------------------------------------------------------------------|
G |--------6--66----44-----99------------66--------------------------|
D |--------6--66----44-----99----77------66-------22------44---------| 2x 
A |--------4--44----22-----77----77------44-------22------44---------|
E |------------------------------55-----------------------22---------|
             C#     B      E     A       C#       Em      F#    

1st verse       
e |------------------------------------------------------------------|
B |------------------------------------------------------------------|
G |--------6--66----44-----99------------66--------------------------| 
D |--------6--66----44-----99----77------66-------22------44---------| 2x
A |--------4--44----22-----77----77------44-------22------44---------|
E |------------------------------55-----------------------22---------|
             C#     B      E     A       C#       Em      F#          

2nd Verse
e |------------------------------------------------------------------|
B |------------------------------------------------------------------|
G |-----------6--66444444----444444----------------------------------|
D |-----------6--66444444----444444---22222222---44444444------------| 2x
A |-----------4--44444444----222222---22222222---44444444------------|
E |----------------------------------------------22222222------------|
                C#             B         Em         F#                  

Chorus
e |------------------------------------------------------------------|
B |------------------------------------------------------------------|
G |--------6--66----44-----99------------66--------------------------| 
D |--------6--66----44-----99----77------66-------22------44---------| 2x
A |--------4--44----22-----77----77------44-------22------44---------|
E |------------------------------55-----------------------22---------|
             C#     B      E     A       C#       Em      F#          
Tap to rate this tab
 
# A B C D E F G H I J K L M N O P Q R S T U V W X Y Z