Song name
# A B C D E F G H I J K L M N O P Q R S T U V W X Y Z

Cinder - Daddy tab

intro
e(------------------------------------------------------2-----2-----2-----2-)
b(------------------------------------5-----5-----5-------------------------)
g(--8---------------8-----8-----8-------6-6---8-6---8-6---3-4-----4-----4---)
d(--8-8-6-9-8-6-9-8---8-6---8-6---8-6---6-----------------3-----4-----4-----)
a(--6-----------------------------------4-----------------1-----------------)
D(--------------------------------------------------------------------------)

verse
e(------------------------------------------------------------------------)
b(------------------------------------------------------------------------)
g(--4-444-444-444-448-888-888-888-889-999-999-999-9911-111111-111111-1111-)
d(--4-444-444-444-448-888-888-888-889-999-999-999-9911-111111-111111-1111-)
a(--2-222-222-222-226-666-666-666-667-777-777-777-77-9--9-9-9--9-9-9--9-9-)
D(------------------------------------------------------------------------)

chorus
e(---------------------------------------------------------------)
b(---------------------------------------------------------------)
g(--4-xx4-xx4-xx4-xx---------------------------------------------)
d(--4-xx4-xx4-xx4-xx4-xx4-xx4-xx4-xx6-xx6-xx6-xx9-xx9-xx9-xx9-xx-)
a(--2-xx2-xx2-xx2-xx4-xx4-xx4-xx4-xx6-xx6-xx6-xx9-xx9-xx9-xx9-xx-)
D(------------------4-xx4-xx4-xx4-xx6-xx6-xx6-xx9-xx9-xx9-xx9-xx-)

chorus(lead)
e(-------------)
b(-------------)
g(-------------)
d(--8-99997777-)
a(-------------)
D(-------------)

solo
e(-------------------------------11-------------------------------)
b(--------------------------------------8-88889-xx9-xx9-xx9/12-11-)
g(----6xx---6xx---6xx---6xx-8-8x----8-8---------------------------)
d(--8-----8-----8-----8-------------------------------------------)
a(----------------------------------------------------------------)
D(----------------------------------------------------------------)

outro is the same as the intro but played slower
Tap to rate this tab
# A B C D E F G H I J K L M N O P Q R S T U V W X Y Z