Song name
# A B C D E F G H I J K L M N O P Q R S T U V W X Y Z

Cinder - Ugly tab

Help us improve GuitareTab! Take a short survey!
chorus
e(-------------------)
b(-------------------)
g(-------------------)
d(--0-1-2-0-1-0-xxxx-)
a(--0-1-2-0-1-0-xxxx-)
D(--0-1-2-0-1-0-xxxx-)

verse
e(-------------)
b(----------44-)
g(----------33-)
d(--0-00-01----)
a(--0-00-01----)
D(--0-00-01----)
  pm. .. ..

pre-chorus
e(--99999999-12-12-12-12-12-12-12-12----------77777777-)
b(-----------------------------------99999999----------)
g(-----------------------------------------------------)
d(-----------------------------------------------------)
a(-----------------------------------------------------)
D(-----------------------------------------------------)

bridge
e(----------)(-------)
b(----------)(-------)
g(----------)(-------)
d(--1-0-112-)(-------)
a(--1-0-112-)(--6b/4-)
D(--1-0-112-)(-------)
Related for Ugly tab