Guitaretab - guitar tabs
Song name
# A B C D E F G H I J K L M N O P Q R S T U V W X Y Z

Cinder - Something tab

intro/pre-chorus
e(---------10-7---7---------7--------10-7---9-----------9-7-)
b(--8-----------8---8-----8---8-----------8---10-7-7-10-----)
g(----9---------------9-9-------9---------------------------)
d(------10------------------------10------------------------)
a(----------------------------------------------------------)
D(----------------------------------------------------------)

verse x2
e(----------------------------------------------------------)
b(----------------------------------------------------------)
g(----------------------------------------------------------)
d(----------------------0-2-4-2---------------------0-2-4-2-)
a(--5--2h5-2h5--2h5-0h2---------5--2h5-2h5--2h5-0h2---------)
D(----------------------------------------------------------)
[ Tab from: http://www.guitaretab.com/c/cinder/148613.html ]
verse continued
e(-----------------------------------------------------------)
b(-----------------------------------------------------------)
g(---------------------------------------------------------2-)
d(----------------------0-2-4-2----------------------0-2-4---)
a(--5--2h5-2h5--2h5-0h2---------5--2h5-2h5--2h5-0h2----------)
D(-----------------------------------------------------------)

chorus
e(-------------------------------------------------------------)
b(-------------------------------------------------------------)
g(--777777444444/7777777999111111777777444444/7777777101010999-)
d(--777777444444/7777777999111111777777444444/7777777101010999-)
a(--555555222222/5555555777-9-9-9555555222222/5555555-8-8-8777-)
D(-------------------------------------------------------------)

chorus(lead)
e(-------------------------------------------------------------)
b(-------------------------------------------------------------)
g(--777777444444/7777777999111111777777444444/7777777101010999-)
d(-------------------------------------------------------------)
a(-------------------------------------------------------------)
D(-------------------------------------------------------------)

bridge x2
e(------------------------------------)
b(--7---7-7---7----7--7-7---7----7/16-)
g(-----9-9---9-99----9-9---9-99-------)
d(------------------------------------)
a(------------------------------------)
D(------------------------------------)
Related for Something tab